>
 >
Take It All

Take It All Guitar Tabs

Trust Company - Take It All chords, tabs, tablatures, lyrics

Guitar lessons | Add/correct | Request | Top 50 tabs Artists:  A B C D E F G H I J K L M N O P Q R S T U V W X Y Z 0-9

Take It All Guitar Tabs – Trust Company

CD, Sheet music, Poster

Do you like Take It All? Share with your friends now
TabsTabs v2

    Intro (x4)
E ----------------------------------------------------------------------
B ----------------------------------------------------------------------
G ----------------------------------------------------------------------
D ----------------------------------------------------------------------
A ----------------------------------------------------------------------
C#-----2--2---0--2--2--0--2--2--0--2--3--2--0--2------------------------

      Verse(x4)
E ------------------------------------------------------------------
B ------------------------------------------------------------------
G ------------------------------------------------------------------
D ------------------------------------------------------------------
A -----0--1--1--1-----0--1--1--1-----0--1--2--2---------------------
C#-----0--2--2--2-----0--2--2--2-----0--2--3--3---------------------

Guitar 1 (Palm) (x4)

E --------------------------------------------------------------------
B --------------------------------------------------------------------
G --------------------------------------------------------------------
D --------------------------------------------------------------------
A --------------------------------------------------------------------
C#----2-(x16)------0-(x16)------3-(x16)------10-(x16)-----------------

Guitar 2

E ------------------------------------------------------------
B -------------------------------------------------4----------
G --------6-----------6-----------------4---------------------
D -----4-----4----4-----4-----4--6--------6---4---------------
A ------------------------------------------------------------
C#------------------------------------------------------------

Before chorus
E --------------------------------------------
B --------------------------------------------
G --------------------------------------------
D --------------------------------------------
A ------1----1------0-----1------1------------
C#------2----2------0-----2------2------------


Chorus (x2) 
(figure out the strumming pattern)
                                                            
E -------------------------------------------------------------------
B -------------------------------------------------------------------
G ------------------6-------------4------------4-----------3b4b3-----
D ------------------6-------------4------------4---------------------
A -----1------------4-------------2------------2----------------2----
C#-----2--------------------------------------------------------3----

          (x2)
E --------------------------------------------------------------------
B --------------------------------------------------------------------
G --------------------------------------------------------------------
D --------------------------------------------------------------------
A --------------------------------------------------------------------
C#-----2--2--0--2--2--0--2--2--0--2--3--2--0--2-----------------------

Guitar 1 Palm(x4)

E ----------------------------------------------------------------------
B ----------------------------------------------------------------------
G ----------------------------------------------------------------------
D ----------------------------------------------------------------------
A ----------------------------------------------------------------------
C#------2-(x16)------0-(x16)------3-(x16)------10-(x16)-----------------

Guitar 2

E ----------------------------------------------------------------------
B --------------------7--------------7-------------7--7-----------7-----
G ----------8---10--------8--10------------8---9----------8--10---------
D -------9--------------9---------------9-------------------------------
A ----------------------------------------------------------------------
C#----------------------------------------------------------------------

before chorus
E--------------------------------------------
B--------------------------------------------
G--------------------------------------------
D--------------------------------------------
A------1---1---------0-----1-----1-----------
C#-----2---2---------0-----2-----2-----------

Chorus(x2)

Intro(x4)

Verse(x8)

Chorus(x4)

       Ending(x4)
E -------------------------------
B -------------------------------
G -------------------------------
D -------------------------------
A ------0-------1---1------------
C#------0-------2---2------------





Comments


Popular Trust Company tabs & chords
Stronger Bass Tabs
Downfall Chords
Deeper Into You Tabs
Deeper Into You 1 Tabs
Drop To Zero 1 Tabs
Fear Tabs
Figure Tabs
Figure 8 Tabs
Lonely Tabs
Slipping Away 1 Tabs


Song lyrics



↑ Back to top | Tablatures and chords are parodies/interpretations of the original songs. You may use it for private study, scholarship, research or language learning purposes only
© 2014 AZChords.com Contact us | Privacy policy | DMCA | Add/correct tabs | Request tabs | Top 50 tabs