» » »

Trust Company, Stronger Bass tabs (ver.1)

Artists:  A B C D E F G H I J K L M N O P Q R S T U V W X Y Z # 

Stronger Bass tabs (ver.1)

Trust Company Tabs
 Rating:
4/5 (4 votes)
Stronger lessons Tabs too difficult? Try these video lessons and learn fast
1
                Intro x2
G|--------------------------------------|
D|--------------------------------------|
A|-------333-------------333------------|
D|-222000---0005000222000---0005000-----|

Verse
G|---------------------------------------------------------------------|
D|---------------------------------------------------------------------|
A|---------------------------------------------------------------------|
D|-2~------------2/5~------------5/9~--------------10~----------10\----|

G|---------------------------------------------------------------------|
D|---------------------------------------------------------------------|
A|---------------------------------------------------------------------|
D|-2~------------2/5~------------5/9~------------9/10~-----------------|

Pre-Chorus
G|-------------------------------------------------------------------------|
D|-------------------------------------------------------------------------|
A|-------333-------------333-----------------------------------------------|
D|-222000---0005000222000---000500000000000000000000000000000000-----------|

Chorus x2
G|---------------------------------------------------------------------|
D|---------------------------------------------------------------------|
A|---------------------------------0-0-0-0-0-0-0-0-3-3-3-3-3-3-3-3-----|
D|-2-2-2-2-2-2-2-2-0-0-0-0-0-0-0-0-------------------------------------|

Verse 2
G|---------------------------------------------------------------------|
D|---------------------------------------------------------------------|
A|---------------------------------------------------------------------|
D|-2~------------2/5~------------5/9~------------9/10~----------10\----|

G|---------------------------------------------------------------------|
D|---------------------------------------------------------------------|
A|---------------------------------------------------------------------|
D|-2~------------2/5~------------5/9~------------9/12\10~--------------|

Pre-Chorus
Chorus x2

Bridge
G|----------------------------------------------------------------------|
D|----------------------------------------------------------------------|
A|-----------------0-0-0-0-0-0-0-0-3-3-3-3-3-3-3-3----------------------|
D|-2-2-2-2-2-2-2-2---------------------------------0-0-0-0-0-0-0-0------|

G|----------------------------------------------------------------------|
D|----------------------------------------------------------------------|
A|-----------------0-0-0-0-0-0-0-0-3-3-3-3-3-3-3-3-33-33-33-33-3-3------|
D|-2-2-2-2-2-2-2-2------------------------------------------------------|

Rest
Chorus x2
Bridge

End on
G|---|
D|-2-|
A|---|
D|---|
            
Submit corrections

comments powered by Disqus
↑ Back to top | Trust Company Bass for Stronger. Lyrics for acoustic guitar and electric guitar. 1 Tablatures and chords are parodies/interpretations of the original songs. You may use it for private study, scholarship, research or language learning purposes only