>
 >
Silently

Silently Guitar Tabs

Trust Company - Silently chords, tabs, tablatures, lyrics

Guitar lessons | Add/correct | Request | Top 50 tabs Artists:  A B C D E F G H I J K L M N O P Q R S T U V W X Y Z 0-9

Silently Guitar Tabs – Trust Company

CD, Sheet music, Poster

Do you like Silently? Share with your friends now
Tabs
Band- Trustcompany
Song- Silently

D[---------------------------------------------------------------]
A[---------------------------------------------------------------]
F[---------------------------------------------------------------]
C[---2---2------2--2------6--6--7--4--6---6----------------------]
G[--0---0---0--0--0---0--4--4-----4-----4------7-----------------]
C[-0---0---0--2--2---2--4--4--4--4----------4--------------------]

Chorus:

D[----------------]
A[----------------]
F[----------------]
C[-7--2--4--0---9-]
G[-7--2--4--0---9-] The 999 is played when he says "It screams in me.."
C[-7--2--4--0---9-]

There are some background lead figures, something like... 
D[----------------]
A[----------------]
F[-13-13h14--16---]
C[-----------x----]
G[-----------14---]
C[----------------]

Then, during the chorus, when he says "it screams in me.." the lead playsss....

D[-------------------------------------------]
A[-17-15--17-15---17-15--17-15---17~~--------]
F[------14-----14------14-----14-------------]
C[-------------------------------------------]
G[-------------------------------------------]
C[-------------------------------------------]




The last chord is strumed a bunch of times. There are also variations on that theme 
that you can figure out.  They're easy to play.  I'll add them in later.

Bridge...

Rhythm guitar is something liike

D[-------------------------------------]
A[-------------------------------------]
F[-------------------------------------]
C[-6666666666666666-0000000000000000---]
G[-6666666666666666-0000000000000000---]
C[-6666666666666666-0000000000000000---]

Lead plays the same deal an octave above

D[---------------]
A[---------------] 
F[-13--14--------]
C[-x---x---------] At one point during the bridge, he goes up to a 14x16... you can hear when it happens.
G[-11--12--------]
C[---------------]

That\'s strummed 16 times just like the rhythm part.

Outro:

Something like.....
D[------5---------------]
A[-----5-5--------------]
F[----2---2-------------]
C[---2-----2------------]
G[--0-------------------]
C[-0--------------------]





Comments


Popular Trust Company tabs & chords
Downfall 2 Tabs
Drop To Zero Tabs
Figure Tabs
Finally Tabs
Hover Tabs
Lonely Tabs
Retina Tabs
Running From Me 1 Tabs
Slipping Away 1 Tabs
Surfacing Tabs


Song lyrics



↑ Back to top | Tablatures and chords are parodies/interpretations of the original songs. You may use it for private study, scholarship, research or language learning purposes only
© 2014 AZChords.com Contact us | Privacy policy | DMCA | Add/correct tabs | Request tabs | Top 50 tabs