» » »

Running From Me Tabs (ver.3)

Artists:  A B C D E F G H I J K L M N O P Q R S T U V W X Y Z # 

Running From Me Tabs (ver.3)

Trust Company
Rating:
0/5 (0 votes)

Tabs too difficult? Try these video lessons and learn fast.
                
Tuning: Dropped D Flat (Db Ab Db Gb Bb Eb)

Intro
Guitar 1 (w/ clean tone)
		x4		  x2		    x2
|-----------------|-----------------|-----------------|
|-----------------|-----------------|-----------------|
|-----------------|-----------------|-----------------|
|-----------------|-----------------|-----------------|
|---3-5---5---3-5-|---3-5---5---3-5-|---3-5---5---3-5-|
|-0-----0---0-----|-3-----3---3-----|-2-----2---2-----|
| PM-------------------------------------------------|
|
|Guitar 2
|-----------------------------------------------------------|
|-----------------------------------------------------------|
|-----------------------------------------------------------|
|-------------------------------------0~~~~~----------5^-5^-|
|-------------------------------------0~~~~~----------------|
|-------------------------------------0~~~~~----------------|
NOTE: Guitar 2 comes in first time last riff is played by guitar 1 and
the note is hit then the volume is turned up from the guitar to create
a swell.

Chorus
|----------------------|
|----------------------|
|----------------------|
|-0-10-12-0-12-0-10-12-|
|-0-10-12-0-12-0-10-12-|
|-0-10-12-0-12-0-10-12-|x4

|------------------------------------------------------------------|
|------------------------------------------------------------------|
|-10101010101010101010101010101010-9-9-9-9-9-9-9-9-9-9-9-9-9-9-9-9-|
|-8-8-8-8-8-8-8-8-8-8-8-8-8-8-8-8--7-7-7-7-7-7-7-7-7-7-7-7-7-7-7-7-|
|-8-8-8-8-8-8-8-8-8-8-8-8-8-8-8-8--7-7-7-7-7-7-7-7-7-7-7-7-7-7-7-7-|
|-8-8-8-8-8-8-8-8-8-8-8-8-8-8-8-8--7-7-7-7-7-7-7-7-7-7-7-7-7-7-7-7-|

Verse
|---|---|---|---|
|---|---|---|---|
|---|---|---|---|
|-0-|-8-|-5-|-8-|
|-0-|-8-|-5-|-8-|
|-0-|-8-|-5-|-8-|x2
NOTE: Strum these notes 16 times each.

Play Chorus twice.
Repeat Verse
Play Chorus like last time.

Bridge
|------------------------------------------|
|------------------------------------------|
|------------------------------------------|
|-0-------0-------0-------0-------------0~-|
|-0-------0-------0-------0-------------0~-|
|-0-5^-5^-0-5^-5^-0-5^-5^-0-5^-5^-5^-5^-0~-|x2
|
|Guitar 2 (w/ weird clean tone)
|----------------------|
|----------------------|
|----------------------|
|----------------------|
|----------------------|
|-0-10-12-0-12-0-10-12-|
  PM------------------|
NOTE: Guitar 2 is played after the second time.

Interlude
|---------------------------------|
|---------------------------------|
|---------------------------------|
|-0-10-12-0-10-12-0-10-12-8-8-8-7-|
|-0-10-12-0-10-12-0-10-12-8-8-8-7-|
|-0-10-12-0-10-12-0-10-12-8-8-8-7-|x3

|--------------------------------------|
|--------------------------------------|
|--------------------------------------|
|-0-10-12-0-10-12-12-12-12-12-12-12-12-|
|-0-10-12-0-10-12-12-12-12-12-12-12-12-|
|-0-10-12-0-10-12-12-12-12-12-12-12-12-|

|------------------------------------------------------------------|
|------------------------------------------------------------------|
|-10101010101010101010101010101010-9-9-9-9-9-9-9-9-9-9-9-9-9-9-9-9-|
|-8-8-8-8-8-8-8-8-8-8-8-8-8-8-8-8--7-7-7-7-7-7-7-7-7-7-7-7-7-7-7-7-|
|-8-8-8-8-8-8-8-8-8-8-8-8-8-8-8-8--7-7-7-7-7-7-7-7-7-7-7-7-7-7-7-7-|
|-8-8-8-8-8-8-8-8-8-8-8-8-8-8-8-8--7-7-7-7-7-7-7-7-7-7-7-7-7-7-7-7-|

Repeat Chorus
NOTE: On the 2nd (last) time u play the chorus just hit the (88810xx)'s,
Don't hit the (7779xx)'s.

Ending
|-------|
|-------|
|-------|
|-0-0-0-|
|-0-0-0-|
|-0-0-0-|x11

And that's all there is!
            
Tabs too difficult? Try these video lessons and learn fast.




comments powered by Disqus
↑ Back to top | Tablatures and chords are parodies/interpretations of the original songs. You may use it for private study, scholarship, research or language learning purposes only