>
 >
Retina

Retina Guitar Tabs

Trust Company - Retina chords, tabs, tablatures, lyrics

Guitar lessons | Add/correct | Request | Top 50 tabs Artists:  A B C D E F G H I J K L M N O P Q R S T U V W X Y Z 0-9

Retina Guitar Tabs – Trust Company

CD, Sheet music, Poster

Do you like Retina? Share with your friends now
Tabs
ok heres my story, everyone has one... litterally for months i looked for the tab to
this song... then one day (recently) i tried looking for it again and i was excited to
find that someone had finally tabbed it!  Unfortunately the guy didnt know the "intro
riff thingy" as he called it, and thats the one thing I really wanted to know... I've
never tabbed anything before so i was afraid to try and figure it out for myself, but
i gained the courage tonight and voila here it is... i figured it out on my accoustic
(cuz its late at night) but its should be right, at least the notes are right (Bb - A
- F)... its a good start, allright!  im pretty sure its right, and im excited to try it
with my band.
There's still a transition part at the beginning i dont know. its the part right before
it goes into the first verse.  If anyone wants to tab that, you'd be doin me a favor.
maybe I'll do it...
anyway, enjoy and thank you to the guy who tabbed the rest, youre awesome! I hope you
don't mind i put your tab after mine.

In case you didnt know, THIS IS NUMBER 41 ON TRUE PARALLELS!

tunning  low to high  CGCFAD

guitar 1
intro/outro riff thingy
D[-----8p7------8p7------8p7-8p7-----8p7-----8------]
A[----------8--------8-------------8-------8--------]
F[--------------------------------------------------]
C[--------------------------------------------------]
G[--------------------------------------------------]
C[--------------------------------------------------]

then with chorus comes in... and

guitar 1
D[-----8p7------8p7------8p7-----7h8-----------]
A[----------8--------8---------8---------------]
F[---------------------------------------------]
C[---------------------------------------------]
G[---------------------------------------------]
C[---------------------------------------------]

and then

D[-----10p8p7----10p8p7----10p8p7----7h8--------]
A[----------------------------------------------]
F[----------------------------------------------]
C[----------------------------------------------]
G[----------------------------------------------]
C[----------------------------------------------]

you repeat those parts 4 times over this...

guitar 2
D[----------------------------------------------------]
A[----------------------------------------------------]
F[----------------------------------------------------]
C[-7----10----0----3----------------------------------]
G[-7-x8-10-x8-0-x8-3-x8-------------------------------]
C[-7----10----0----3----------------------------------]

then theres a transition here which i dont know yet, but im sure its not hard to figure out.

Verse:
D[------------------1------------3--1-0-----1/----------]
A[---------3-----------------------------3--------------]
F[----4--2-----4--2------4--2---------------------------]
C[------------------------------------------------------]
G[------------------------------------------------------]
C[------------------------------------------------------]

Chorus is same as the intro main riff above.

Second Verse:
D[-------------------1------------3--1-0-----1/3/-----------]
A[---------3--1---------------------------3-----------------]
F[----4--2------4--2------0-4--2----------------------------]
C[----------------------------------------------------------]
G[----------------------------------------------------------]
C[----------------------------------------------------------]

Chorus riff goes on for the rest of the song.
And somewhere in the middle of the end, the intro riff thingy starts up again.


On a personal note, I was sorry to hear trust company broke up, i would have liked to 
some more from them.





Comments


Popular Trust Company tabs & chords
Falling Apart Bass Tabs
Without A Trace Bass Tabs
Deeper Into You 2 Tabs
Drop To Zero 2 Tabs
Falling Apart Tabs
Fold Tabs
Heart In My Hands Tabs
Hover Tabs
Running From Me 2 Tabs
Slipping Away 1 Tabs


Song lyrics



↑ Back to top | Tablatures and chords are parodies/interpretations of the original songs. You may use it for private study, scholarship, research or language learning purposes only
© 2014 AZChords.com Contact us | Privacy policy | DMCA | Add/correct tabs | Request tabs | Top 50 tabs