>
 >
Mysterious Rests

Mysterious Rests Bass Tabs

Trust Company - Mysterious Rests chords, tabs, tablatures, lyrics

Guitar lessons | Add/correct | Request | Top 50 tabs Artists:  A B C D E F G H I J K L M N O P Q R S T U V W X Y Z 0-9

Mysterious Rests Bass Tabs – Trust Company

CD, Sheet music, Poster

Do you like Mysterious Rests? Share with your friends now
Bass Tabs
i have no idea what the album is
tuning:g,d,a,e
g-------------5------------------|--------------------------------|
d------7--7------7-----7--7/-----|--------2-------------------5---|
a------------------------------0-|--3--3-----3---3--3/-7--7------7|
e--------------------------------|--------------------------------|
let these next notes ring out
g---------------------------|
d---------------------------|
a------7--7-----7-------5--5|
e---0---------0---0--0------|
next
g---------------------|------------|
d---------------------|--------2---|
a---5--5--3--5--3--5-5|--0--0-----0|
e---------------------|------------|
let notes ring again
g------------------------------------------------|
d---------------5--7------7----------------------|
a----7------0--------------------7---0-5--0-----0|
e------------------------------------------------|
keep goin......
g--------------------------------------|
d--------------------------------------|
a---3----------------0---3----------0h2|
e-------0---1--3-------------0--1-3----|
play fast
g---------------------------------------------------|
d---------------------------------------------------|
a-------------5----5----5--5--7--7--7-7-------------|
e--5--5--5-5------------------------------5--------5|
slide to all notes
g-------------------|
d-------------------|
a---------4---/6---4|
e-----6-------------|
go faaaaaaaaast!
g----------------------------------------------|
d----5--4--------------------5-----------------|
a---------7--5--7---7------------7--5--7--5---7|
e------------------------0---------------------|
next
g-----------------------------------------------|
d-------(9)h11---------9------9---9--11---------|
a-------------------11--------------------------|
e-----------------------------------------9--9/-|
outro
g--------------------------|
d--------------------------|
a------------4--5--7-------|
e--7---5--5------------7--5|
thats it
this song was very difficult to tab, so there is probably a mistake somewhere in there, but at lest i tried!





Comments


Popular Trust Company tabs & chords
The Fear Bass Tabs
Without A Trace Bass Tabs
Stumbling Chords
Downfall 1 Tabs
Downfall 2 Tabs
Erased Tabs
Figure Tabs
Retina Tabs
Stronger Tabs
War Is Over Tabs


Song lyrics



↑ Back to top | Tablatures and chords are parodies/interpretations of the original songs. You may use it for private study, scholarship, research or language learning purposes only
© 2014 AZChords.com Contact us | Privacy policy | DMCA | Add/correct tabs | Request tabs | Top 50 tabs