>
 >
Heart In My Hands

Heart In My Hands Guitar Tabs

Trust Company - Heart In My Hands chords, tabs, tablatures, lyrics

Guitar lessons | Add/correct | Request | Top 50 tabs Artists:  A B C D E F G H I J K L M N O P Q R S T U V W X Y Z 0-9

Heart In My Hands Guitar Tabs – Trust Company

CD, Sheet music, Poster

Do you like Heart In My Hands? Share with your friends now
Tabs
			HEART IN MY HANDS - Trustcompany    


Tuning: Drop C#


Intro:

d#|--------10------------10------------10------------10--------------------|
A#|----8-------------8-------------8-------------8-------------------------|
F#|--9---9---------9---9---------9---9---------9---9-----------------------|
C#|------------------------------------------------------------------------|
G#|------------------------------------------------------------------------|
C#|------------------------------------------------------------------------|

Main Riff: *start with a pick slide*

d#|------------------------------------------------------------------------|
A#|------------------------------------------------------------------------|
F#|------------------------------------------------------------------------|
C#|--2p0-2h3-2p0-5-3-0h2-0h2-3p2-0-5--0-2p0-2h3-5-3-0-2--------------------|
G#|--2p0-2h3-2p0-5-3-0h2-0h2-3p2-0-5--0-2p0-2h3-5-3-0-2--------------------|
C#|--2p0-2h3-2p0-5-3-0h2-0h2-3p2-0-5--0-2p0-2h3-5-3-0-2--------------------|

Verses: 

d#|--0--0--0-0-0--0-0--0--0--0-0-0--0-0--0--0--0-0-0--0-0--0--0--0-0-0--0--|
A#|--0--0--0-0-0--0-0--0--0--0-0-0--0-0--0--0--0-0-0--0-0--0--0--0-0-0--0--|
F#|--x--x--x-x-x--x-x--x--x--x-x-x--x-x--x--x--x-x-x--x-x--x--x--x-x-x--x--|
C#|--9--9--9-9-9--9-9--9--9--9-9-9--9-9--5--5--5-5-5--5-5--7--7--7-7-7--7--|
G#|--7--7--7-7-7--7-7--7--7--7-7-7--7-7--3--3--3-3-3--3-3--5--5--5-5-5--5--|
C#|------------------------------------------------------------------------|

Pre-Chorus:

d#|------------------------------------------------------------------------|
A#|------------------------------------------------------------------------|
F#|------------------------------------------------------------------------|
C#|--10-10-10-10-10-10-10-10-7-7-7-7-7-7-----------------------------------|
G#|--10-10-10-10-10-10-10-10-7-7-7-7-7-7-----------------------------------|
C#|--10-10-10-10-10-10-10-10-7-7-7-7-7-7--(slide)--------------------------|

Chorus:

d#|------------------------------------------------------------------------|
A#|------------------------------------------------------------------------|
F#|------------------------------------------------------------------------|
C#|-2-2-2-2-2-2-2-2-5-5-5-5-5-5-5-5-10-10-10-10-10-10-10-10-7-7-7-7-7-7-7-7|
G#|-2-2-2-2-2-2-2-2-5-5-5-5-5-5-5-5-10-10-10-10-10-10-10-10-7-7-7-7-7-7-7-7|
C#|-2-2-2-2-2-2-2-2-5-5-5-5-5-5-5-5-10-10-10-10-10-10-10-10-7-7-7-7-7-7-7-7|

d#|------------------------------------------------------------------------|
A#|------------------------------------------------------------------------|
F#|------------------------------------------------------------------------|
C#|-2-2-2-2-2-2-2-2-5-5-5-5-5-5-5-5-10-10-10-10-10-10-10-10-0-0-0-0-0-0-0-0|
G#|-2-2-2-2-2-2-2-2-5-5-5-5-5-5-5-5-10-10-10-10-10-10-10-10-0-0-0-0-0-0-0-0|
C#|-2-2-2-2-2-2-2-2-5-5-5-5-5-5-5-5-10-10-10-10-10-10-10-10-0-0-0-0-0-0-0-0|

d#|------------------------------------------------------------------------|
A#|------------------------------------------------------------------------|
F#|------------------------------------------------------------------------|
C#|-2-2----------------2-2-------------------------------------------------|
G#|-2-2----------------2-2-------------------------------------------------|
C#|-2-2----------------2-2-------------------------------------------------|

Verse: X2

Pre Chorus: X1

Chorus: X1

After 2nd Chorus:

d#|------------------------------------------------------------------------|
A#|------------------------------------------------------------------------|
F#|------------------------------------------------------------------------|
C#|--2---------------------------------------------------------------------|
G#|--2---------------------------------------------------------------------|
C#|--2------------------------2-2-2-2-2-2-2-2--Pick Slide---->--->--->--->-|
                              x x x x x x x x

Main Riff: Play twice

d#|------------------------------------------------------------------------|
A#|------------------------------------------------------------------------|
F#|------------------------------------------------------------------------|
C#|--2p0-2h3-2p0-5-3-0h2-0h2-3p2-0-5--0-2p0-2h3-5-3-0-2--------------------|
G#|--2p0-2h3-2p0-5-3-0h2-0h2-3p2-0-5--0-2p0-2h3-5-3-0-2--------------------|
C#|--2p0-2h3-2p0-5-3-0h2-0h2-3p2-0-5--0-2p0-2h3-5-3-0-2--------------------|

Bridge:

d#|------------------------------------------------------------------------|
A#|------------------------------------------------------------------------|
F#|------------------------------------------------------------------------|
C#|-0-2-0-2-3-0-5-3-0-2-0-2-3-0-3-5-0-2-0-2-3-0-5-3------------------------|
G#|------------------------------------------------------------------------|
C#|----------------------------------------------------Pick Slide----------|
    x x x x x x x x x x x x x x x x x x x x x x x x

d#|------------------------------------------------------------------------|
A#|------------------------------------------------------------------------|
F#|------------------------------------------------------------------------|
C#|-2p0-2h3-2p0-5h3-0h2-0h2-3p0-3/5-2p0-2h3-2p0-5h3-0-(3)(3)(4)(4)(5)(5)(5)|
G#|-2p0-2h3-2p0-5h3-0h2-0h2-3p0-3/5-2p0-2h3-2p0-5h3-0-(3)(3)(4)(4)(5)(5)(5)|
C#|-2p0-2h3-2p0-5h3-0h2-0h2-3p0-3/5-2p0-2h3-2p0-5h3-0-(3)(3)(4)(4)(5)(5)(5)|

Last Chorus:

d#|------------------------------------------------------------------------|
A#|------------------------------------------------------------------------|
F#|------------------------------------------------------------------------|
C#|-10-10-10-10-10-10-10-10-7-7-7-7-7-7-7-7-2-2-2-2-2-2-2-2-0-0-0-0-0-0-0-0|
G#|-10-10-10-10-10-10-10-10-7-7-7-7-7-7-7-7-2-2-2-2-2-2-2-2-0-0-0-0-0-0-0-0|
C#|-10-10-10-10-10-10-10-10-7-7-7-7-7-7-7-7-2-2-2-2-2-2-2-2-0-0-0-0-0-0-0-0|

d#|------------------------------------------------------------------------|
A#|------------------------------------------------------------------------|
F#|------------------------------------------------------------------------|
C#|-10-10-10-10-10-10-10-10-7-7-7-7-7-7-7-7-2-2-2-2-2-2-2-2-0-0-0-0-0-0-0-0|
G#|-10-10-10-10-10-10-10-10-7-7-7-7-7-7-7-7-2-2-2-2-2-2-2-2-0-0-0-0-0-0-0-0|
C#|-10-10-10-10-10-10-10-10-7-7-7-7-7-7-7-7-2-2-2-2-2-2-2-2-0-0-0-0-0-0-0-0|

d#|------------------------------------------------------------------------|
A#|------------------------------------------------------------------------|
F#|------------------------------------------------------------------------|
C#|-10-10-10-10-10-10-10-10-7-7-7-7-7-7-7-7-2-2-2-2-2-2-2-2-5-5-5-5-5-5-5-5|
G#|-10-10-10-10-10-10-10-10-7-7-7-7-7-7-7-7-2-2-2-2-2-2-2-2-5-5-5-5-5-5-5-5|
C#|-10-10-10-10-10-10-10-10-7-7-7-7-7-7-7-7-2-2-2-2-2-2-2-2-5-5-5-5-5-5-5-5|

d#|------------------------------------------|
A#|------------------------------------------|
F#|------------------------------------------|
C#|-10-10-10-10-10-10-10-10-0-0-0-0-0-0-0-0--|
G#|-10-10-10-10-10-10-10-10-0-0-0-0-0-0-0-0--|
C#|-10-10-10-10-10-10-10-10-0-0-0-0-0-0-0-0--|

End with:

d#|------------------------------------------------------------------------|
A#|------------------------------------------------------------------------|
F#|------------------------------------------------------------------------|
C#|-2-2----------------2-2----------------2-2----------------2-2-----------|
G#|-2-2----------------2-2----------------2-2----------------2-2-----------|
C#|-2-2----------------2-2----------------2-2----------------2-2-----------|

END

Enjoy!

************************************

|( )  natural harmonic
| /   slide up
| \   slide down
| h   hammer-on
| p   pull-off
| ~   vibrato
| +   harmonic
| x   Mute note
| b   Bend
| pb  Pre-bend
| br  Bend release
| pbr Pre-bend release
| brb Bend release bend

************************************





Comments


Popular Trust Company tabs & chords
Figure 8 Bass Tabs
Downfall 2 Chords
Breaking Down Tabs
Deeper Into You 1 Tabs
Hover Tabs
Hover 1 Tabs
Running From Me 1 Tabs
Someone Like You Tabs
The Fear 2 Tabs
War Is Over Tabs


Song lyrics



↑ Back to top | Tablatures and chords are parodies/interpretations of the original songs. You may use it for private study, scholarship, research or language learning purposes only
© 2014 AZChords.com Contact us | Privacy policy | DMCA | Add/correct tabs | Request tabs | Top 50 tabs