» » »

Fold Tabs (ver.1)

Artists:  A B C D E F G H I J K L M N O P Q R S T U V W X Y Z # 

Fold Tabs (ver.1)

Trust Company
Rating:
0/5 (0 votes)

Hard to play? Try these video lessons and learn fast.
                
Drop C Tuning (C G C F A D)

x = mute string
* = natural harmonic
. = palm mute
~ = let ring
/ = Slide up
\ = slide down
o = repeat part within o's


=Intro Part 1=
(Guitar 1: Distortion)

D |----------------------------|--------------------------|
A |o--------------------------o|--------------------------|
F |----------------------------|--------------------------|
C |------------REST------------|----------10--8--8-7-8-3--|
G |o--------------------------o|----------10--8--8-7-8-3--|
C |----------------------------|----------10--8--8-7-8-3--|
                                                          |
(Bass guitar: Clean)                                      |
                                                          |
   Play 3x                                                |
F |-------3333--------555------|-------333----------------|
C |--0000--------0000----------|--0000--------------------|
G |o--------------------------o|--------------------------|
C |----------------------------|--------------------------|
     .... ....   .... ...         .... ...


=Intro Part 2=
(Guitar 1: Distortion)

   Play 4x
D |--------------------------------|
A |o------------------------------o|
F |--------------------------------|
C |--0000-8888-------0000-101010---|
G |o-0000-8888-------0000-101010--o|
C |--0000-8888-------0000-101010---|
                                   |
(Guitar 2: Distortion)             |
                                   |
   Play 4x                         |
D |--------------------------------|
A |o------------------------------o|
F |-------10101010--------101010---|
C |--0000-10101010---0000-101010---|
G |o-0000-8-8-8-8----0000-101010--o|
C |--0000-8-8-8-8----0000-101010---|


=Verse 1=
(Guitar 1: Distortion, enter on Guitar 2's 2nd time through verse riff)

D |---------------------------------------------------------------|
A |---------------------------------------------------------------|
F |---------------------------------------------------------------|
C |---------------------------------------------------------------|
G |---------------------------------------------------------------|
C |--00000000------00000000------00000000------00000---05505555---|
     ........      ........      ........      .....    ** ****   |
                                                                  |
(Guitar 2: Clean)                                                 |
                                                                  |
   Play 2x                                                        |
D |----1-------------1-------------1-------------1----1-----1-1---|
A |o-----3-------------3-------------3-------------3----3----3---o|
F |--2-----2-------0-----0-------3-----3-------1-----1-----1------|
C |---------0-------------0-------------0-------------------------|
G |o-------------------------------------------------------------o|
C |---------------------------------------------------------------|


=Pre-Chorus=
(Guitars 1 & 2: Distortion)

D |-----------------------------|-----------------------------|-----------------------------|
A |-----------------------------|-----------------------------|-----------------------------|
F |-----------------------------|-----------------------------|-----------------------------|
C |-0-2-3-0-3-5-0---3-3--3/8-8--|-0-2-3-0-3-5-0---3-3--3\2-2--|-0-2-3-0-3-5-0---3-3--3/8-8--|
G |-0-2-3-0-3-5-0---3-3--3/8-8--|-0-2-3-0-3-5-0---3-3--3\2-2--|-0-2-3-0-3-5-0---3-3--3/8-8--|
C |-0-2-3-0-3-5-0---3-3--3/8-8--|-0-2-3-0-3-5-0---3-3--3\2-2--|-0-2-3-0-3-5-0---3-3--3/8-8--|


=Chorus=
(Guitars 1 & 2: Distortion, strumming not defined)

   Play 4x
D |------------------------|
A |o----------------------o|
F |--------------5-----3---|
C |--0-----3-----5-----3---|
G |o-0-----3-----3-----1--o|
C |--0-----3---------------|


=Verse 2=
(Guitar 1: Distortion)

D |-----------------------------------------------------------|
A |-----------------------------------------------------------|
F |-----------------------------------------------------------|
C |-----------------------------------------------------------|
G |-----------------------------------------------------------|
C |-00000000-----00000000-----00000000-----00000000-----0000--|
    ........     ........     ........     ........     ....  |
                                                              |
(Guitar 2: Clean)                                             |
                                                              |
D |---1------------1------------1------------1----1-----1-1---|
A |-----3------------3------------3------------3----3----3----|
F |-2-----2------0-----0------3-----3------1-----1-----1------|
C |--------0------------0------------0------------------------|
G |-----------------------------------------------------------|
C |-----------------------------------------------------------|

(Guitar 1: Distortion)

D |----------------------------------------------------------------|
A |----------------------------------------------------------------|
F |----------------------------------------------------------------|
C |----------------------------------------------------------------|
G |----------------------------------------------------------------|
C |-000-----0000000000-----0000000000-----0000000000-000-05505555--|
    ...     ..........     ..........     .......... ...  ** ****  |
                                                                   |
(Guitar 2: Clean)                                                  |
                                                                   |
D |---1--------------1--------------1--------------1----1-----1-1--|
A |-----3--------------3--------------3--------------3----3----3---|
F |-2-----2--------0-----0--------3-----3--------1-----1-----1-----|
C |--------0--------------0--------------0-------------------------|
G |----------------------------------------------------------------|
C |----------------------------------------------------------------|


=Bridge=
(Guitar 1: Distortion)

D |------------------------------------|--------------|
A |o-----------------------------------|-------------o|
F |------------------------------------|-5--555/999---|
C |--800-800-8--800-800-8--800-800-8---|-x--xxx/xxx---|
G |o-800-800-8--800-800-8--800-800-8---|-3--333/777--o|
C |--800-800-8--800-800-8--800-800-8---|--------------|
                                                      |
(Guitar 2: Distortion)                                | Both play 3x
                                                      |
D |------------------------------------|--------------|
A |o---------10---------10---------10--|-------------o|
F |----------10---------10---------10--|-5--555/999---|
C |--800-800-8--800-800-8--800-800-8---|-x--xxx/xxx---|
G |o-800-800-8--800-800-8--800-800-8---|-3--333/777--o|
C |--800-800-8--800-800-8--800-800-8---|--------------|

(Guitar 1: Distortion)

                            Strumming not defined here (both guitars)
D |------------------------|----------|
A |------------------------|----------|
F |------------------------|----------|
C |-800-800-8--800-800-8---|-7-----8--|
G |-800-800-8--800-800-8---|-7-----8--|
C |-800-800-8--800-800-8---|-7-----8--|
                                      |
(Guitar 2: Distortion)                |
                                      |
D |------------------------|----------|
A |---------10---------10--|----------|
F |---------10---------10--|----------|
C |-800-800-8--800-800-8---|-7-----8--|
G |-800-800-8--800-800-8---|-7-----8--|
C |-800-800-8--800-800-8---|-7-----8--|


=Outro=
(Guitar 1: Distortion)

D |-----------------------------------|-------------|
A |-----------------------------------|-------------|
F |-----------------------------------|-5--555/999--|
C |-800-800-8--800-800-8--800-800-8---|-x--xxx/xxx--|
G |-800-800-8--800-800-8--800-800-8---|-3--333/777--|
C |-800-800-8--800-800-8--800-800-8---|-------------|
                                                    |
(Guitar 2: Distortion)                              |
                                                    |
D |-----------------------------------|-------------|
A |---------10---------10---------10--|-------------|
F |---------10---------10---------10--|-5--555/999--|
C |-800-800-8--800-800-8--800-800-8---|-x--xxx/xxx--|
G |-800-800-8--800-800-8--800-800-8---|-3--333/777--|
C |-800-800-8--800-800-8--800-800-8---|-------------|

(Guitar 1: Distortion)

D |-----------------------------------|--------------------|
A |-----------------------------------|--------------------|
F |-----------------------------------|--------------------|
C |-800-800-8--800-800-8--800-800-8---|-10--8--8-7-8-3-0~--|
G |-800-800-8--800-800-8--800-800-8---|-10--8--8-7-8-3-0~--|
C |-800-800-8--800-800-8--800-800-8---|-10--8--8-7-8-3-0~--|
                                                           |
(Guitar 2: Distortion)                                     |
                                                           |
D |-----------------------------------|--------------------|
A |---------10---------10---------10--|--------------------|
F |---------10---------10---------10--|--------------------|
C |-800-800-8--800-800-8--800-800-8---|-10--8--8-7-8-3-0~--|
G |-800-800-8--800-800-8--800-800-8---|-10--8--8-7-8-3-0~--|
C |-800-800-8--800-800-8--800-800-8---|-10--8--8-7-8-3-0~--|


Order
-----
Intro Part 1
Intro Part 2
Verse 1
Pre-Chorus
Chorus
Verse 2
Pre-Chorus
Chorus
Bridge
Chorus
Outro


Notes:  I tried to represent the strumming patterns and timing as best I could but it
may not be perfect.  Listening to the song and following along with the tab is the best
way to figure anything out you are having trouble with.  If you have any further
            
Hard to play? Try these video lessons and learn fast. | Correct




comments powered by Disqus
↑ Back to top | Tablatures and chords are parodies/interpretations of the original songs. You may use it for private study, scholarship, research or language learning purposes only