>
 >
Finally

Finally Guitar Tabs

Trust Company - Finally chords, tabs, tablatures, lyrics

Guitar lessons | Add/correct | Request | Top 50 tabs Artists:  A B C D E F G H I J K L M N O P Q R S T U V W X Y Z 0-9

Finally Guitar Tabs – Trust Company

CD, Sheet music, Poster

Do you like Finally? Share with your friends now
Bass TabsTabs
Tuning: Drop Db/C# (Db Ab Db Gb Bb Eb)

This is a great alternative song. Pretty simple.
Best of luck.

The song starts with the base. The guitar comes at about (0.16)

Verse:
Eb|-----------------------------------------------------------------------------------|
Bb|-------------------------------0--0-1-----------------------------------0--0-1-----|
Gb|------0---------0------------2-----------------0---------0------------2------------|
Db|---10---10---10---10-------2----------------10---10---10---10-------2--------------|
Ab|-8---------8-------------0----------------8---------8-------------0----------------|
Db|-----------------------------------------------------------------------------------|
Repeat this a few times.
 note:after repeating this a few times. a strange soothing instrument appears which
      i can't figure out. its not guitar. so i'm leaving it

Pre-Chorus:
Eb|------------------------------------------------------------------------------|
Bb|------------------------------------------------------------------------------|
Gb|------------------------------------------------------------------------------|
Db|------------------------------------------------------------------------------|
Ab|-3-3-3-3/7-7-7-7-7-7-7-7-7-7-7-7\3-3-3--3-3-3-3/7-7-7-7-7-7-7-7-7-7-7-7\3-3-3-|
Db|-3-3-3-3/7-7-7-7-7-7-7-7-7-7-7-7\3-3-3--3-3-3-3/7-7-7-7-7-7-7-7-7-7-7-7\3-3-3-|
                    x x x x                                x x x x
                                          (x2)

Chorus:
Eb|----------------------------------------------------------------------------|
Bb|----------------------------------------------------------------------------|
Gb|----------------------------------------------------------------------------|
Db|-7----------3---------7---------3---------7---------3---------7---------3---|
Ab|-7----------3---------7---------3---------7---------3---------7---------3---|
Db|-7----------3---------7---------3---------7---------3---------7---------3---|

Pre-Verse 2:
Eb|------------------------------------------------------------------------------|
Bb|------------------------------------------------------------------------------|
Gb|------------------------------------------------------------------------------|
Db|------------------------------------------------------------------------------|
Ab|-3-3-3-3/7-7-7-7-7-7-7-7-7-7-7-7\3-3-3--3-3-3-3/7-7-7-7-7-7-7-7-7-7-7-7\3-3-3-|
Db|-3-3-3-3/7-7-7-7-7-7-7-7-7-7-7-7\3-3-3--3-3-3-3/7-7-7-7-7-7-7-7-7-7-7-7\3-3-3-|
                    x x x x                                x x x x
                                          (x2)
Verse 2 is just like verse 1

Repeat the Pre-Chorus
Repeat the Chorus
Then repeat the Pre-chorus again

Bridge:
This part is a little difficult to hear and tab out. So plz forgive me if this isn't perfect.
Eb|-----------------------------------------|
Bb|-----------------------------------------|
Gb|-12-12-----------9-9---------------------|
Db|-------10-10-9-9-----10-10-9-9-12-12-9-9-|
Ab|-----------------------------------------|
Db|-----------------------------------------|
     x  x  x  x x x x x  x  x x x  x  x x x
repeat this 3 times nd then

Eb|-------------------------------------------|
Bb|-------------------------------------------|
Gb|-------12-12-----------9-9-----------------|
Db|-10-10-------9-9-10-10-----9-9-10-10-12-12-|
Ab|-------------------------------------------|
Db|-------------------------------------------|
     x  x  x  x x x  x  x x x x x  x  x  x  x

the guitar stops n the bass moves on

The chorus is the same. except that there is a small lead. The volume is really low, and 
had to
listen to it several times, with great concentration.
Eb|-15-------12-----------|
Bb|----12-13-----13--12---|
Gb|-----------------------|
Db|-----------------------|
Ab|-----------------------|
Db|-----------------------|
Repeat this as many times as required

Outro:
Eb|------------------------------------------------------------------------------|
Bb|------------------------------------------------------------------------------|
Gb|------------------------------------------------------------------------------|
Db|------------------------------------------------------------------------------|
Ab|-3-3-3-3/7-7-7-7-7-7-7-7-7-7-7-7\3-3-3--3-3-3-3/7-7-7-7-7-7-7-7-7-7-7-7\3-3-3-|
Db|-3-3-3-3/7-7-7-7-7-7-7-7-7-7-7-7\3-3-3--3-3-3-3/7-7-7-7-7-7-7-7-7-7-7-7\3-3-3-|
                    x x x x                                x x x x
                                          (x2)

Eb|-----------|
Bb|-----------|
Gb|-----------|
Db|-3/7-7-7-7-|
Ab|-3/7-7-7-7-|
Db|-3/7-7-7-7-|

Have fun!





Comments


Popular Trust Company tabs & chords
Deeper Into You Bass Tabs
Downfall 2 Bass Tabs
Figure 8 Bass Tabs
Mysterious Rests Bass Tabs
The Fear Bass Tabs
Deeper Into You 2 Tabs
Erased Tabs
Figure 1 Tabs
Hover Tabs
Running From Me Tabs


Song lyrics



↑ Back to top | Tablatures and chords are parodies/interpretations of the original songs. You may use it for private study, scholarship, research or language learning purposes only
© 2014 AZChords.com Contact us | Privacy policy | DMCA | Add/correct tabs | Request tabs | Top 50 tabs