» » »

Trust Company, Erased Tabs (ver.1)

Artists:  A B C D E F G H I J K L M N O P Q R S T U V W X Y Z # 

Erased Tabs (ver.1)

Trust Company Tabs
 Rating:
4/5 (4 votes)
Erased lessons Tabs too difficult? Try these video lessons and learn fast
                
Drop C Tuning (C G C F A D)

h = hammer-on
p = pull-off
x = mute string
~ = let ring
* = natrual harmonic
/ = Slide up
\ = slide down
o = repeat part within o's


=Intro Part 1=
(Guitar 2: Fades in, with distortion)

D |---------------------------------------|------------------------------------------|
A |-h7h8p7p0-h7p0-h7h8p7p0-h7p0-h7h8p7p0--|-h8h10p8p0-h8p0-h8h10p8p0-h8p0-h8h10p8p0--|
F |---------------------------------------|------------------------------------------|
C |---------------------------------------|------------------------------------------|
G |---------------------------------------|------------------------------------------|
C |---------------------------------------|------------------------------------------|

   Play 2x
D |-----------------------------------------|
A |o-h7h8p7p0-h7p0-h7h8p7p0-h7p0-h7h8p7p0--o|
F |-----------------------------------------|
C |-----------------------------------------|
G |o---------------------------------------o|
C |-----------------------------------------|


=Intro Part 2=
(Guitars 1 & 2: Distortion)

   Play 12x
D |------------------|
A |o----------------o|
F |------------------|
C |--3-2--2--0-2-0---|
G |o-3-2--2--0-2-0--o|
C |--3-2--2--0-2-0---|


=Verse 1=
(Guitars 1 & 2: Distortion)

   Play 3x                        Last time play this
D |------------------------------|------------------------------------------------|
A |o----------------------------o|------------------------------------------------|
F |------------------------------|------------------------------------------------|
C |--2-2/10-10-10-12~-----10\2---|--2-2/10-10-10-12~-----10-10-10-10/12-12-12-12--|
G |o-2-2/10-10-10-10~-----10\2--o|--2-2/10-10-10-10~-----10-10-10-10/12-12-12-12--|
C |--2-2/10-10-10-10~-----10\2---|--2-2/10-10-10-10~-----10-10-10-10/12-12-12-12--|


=Chorus=
(Guitar 1: Distortion, strumming not defined)

D |----------------------|
A |----------------------|
F |-------------5-----7--|
C |-2-----0-----5-----7--|
G |-2-----0-----3-----5--|
C |-2-----0--------------|

(Guitar 2: Distortion)

   Play 3x
D |-----------------------------------------|------------------------------------------|
A |o-h7h8p7p0-h7p0-h7h8p7p0-h7p0-h7h8p7p0--o|-h8h10p8p0-h8p0-h8h10p8p0-h8p0-h8h10p8p0--|
F |-----------------------------------------|------------------------------------------|
C |-----------------------------------------|------------------------------------------|
G |o---------------------------------------o|------------------------------------------|
C |-----------------------------------------|------------------------------------------|


=Verse 2=
(Guitar 1: Distortion)

   Play 3x                        Last time play this
D |------------------------------|------------------------------------------------|
A |o----------------------------o|------------------------------------------------|
F |------------------------------|------------------------------------------------|
C |--2-2/10-10-10-12~-----10\2---|--2-2/10-10-10-12~-----10-10-10-10/12-12-12-12--|
G |o-2-2/10-10-10-10~-----10\2--o|--2-2/10-10-10-10~-----10-10-10-10/12-12-12-12--|
C |--2-2/10-10-10-10~-----10\2---|--2-2/10-10-10-10~-----10-10-10-10/12-12-12-12--|
                                                                                  |
(Guitar 2: 1st measure clean, 2nd distortion.  Listen to song for timing.)        |
                                                                                  |
D |-----------7------------------|------------------------------------------------|
A |---7-----------7---------7----|------------------------------------------------|
F |-------------5----------------|------------------------------------------------|
C |-5---5-----------5-----5---5--|-----------------------10-10-10-10/12-12-12-12--|
G |------------------------------|-----------------------10-10-10-10/12-12-12-12--|
C |------------------------------|-----------------------10-10-10-10/12-12-12-12--|
    * * *     * * * *     * * *


=Bridge=
(Guitars 1 & 2: Distortion)

   Play 8x
D |------------------|
A |o----------------o|
F |------------------|
C |--3-2--2--0-2-0---|
G |o-3-2--2--0-2-0--o|
C |--3-2--2--0-2-0---|


(Guitar 2: Clean)

   Play 4x
D |--------------------|
A |o------------------o|
F |--------------------|
C |--------------------|
G |o------------------o|
C |--2-2x--2-3-2-0-3---|

(Guitars 1 & 2: Distortion)

   Play 4x              Play 4x             Last time add this (strumming not defined)
D |--------------------|-------------------|----------|
A |o------------------o|o-----------------o|----------|
F |--------------------|-------------------|-5--------|
C |--2-2x--2-3-2-0-3---|--2-2--2-3-2-0-3---|-5-----0--|
G |o-2-2x--2-3-2-0-3--o|o-2-2--2-3-2-0-3--o|-3-----0--|
C |--2-2x--2-3-2-0-3---|--2-2--2-3-2-0-3---|-------0--|


=Outro=
(Guitars 1 & 2: Distortion)

   Play 8x	      Play 7x
D |------------------|---------------------|------------|
A |o----------------o|o-------------------o|------------|
F |------------------|---------------------|------------|
C |--3-2--2--0-2-0---|--3-2x--2x--0-2-0----|--3-2x--2x--|
G |o-3-2--2--0-2-0--o|o-3-2x--2x--0-2-0---o|--3-2x--2x--|
C |--3-2--2--0-2-0---|--3-2x--2x--0-2-0----|--3-2x--2x--|


Order
-----
Intro Part 1
Intro Part 2
Verse 1
Chorus 2x
Verse 2
Chorus 2x
Bridge
Chorus 4x
Outro


Notes:  

-As far as I know, Guitar 2's part for the intro and chorus is just hammer-ons and pull-
offs using your left hand (or right if you're left handed) and not tapping (it doesn't
seem necessary).  In case anyone hasn't seen this before or is confused, when I tab "2x"
that means play a 2 on that fret then mute the string right after playing that note. 
Listen to the song and you'll see what I mean.

-I tried to represent the strumming patterns and timing as best I could but it may not
be perfect.  Listening to the song and following along with the tab is the best way to
figure anything out you are having trouble with.  If you have any further questions or
            
Submit corrections

comments powered by Disqus
↑ Back to top | Trust Company Tabs for Erased. Lyrics for acoustic guitar and electric guitar. Tablatures and chords are parodies/interpretations of the original songs. You may use it for private study, scholarship, research or language learning purposes only