» » »

True Faith, Dahil Ikaw Chords (ver.1)

Artists:  A B C D E F G H I J K L M N O P Q R S T U V W X Y Z # 

Dahil Ikaw Chords (ver.1)

True Faith Tabs
 Rating:
4/5 (4 votes)
Dahil Ikaw lessons Tabs too difficult? Try these video lessons and learn fast
1
                Title       : Dahil Ikaw
Artist      : True FAith





TO my Baby Karla:
Dahil ikaw ang sigaw ng puso ko
Ikaw ang nasa isip ko
Ang nais ko ay malaman mo
Na ikaw ang tanging pangarap ng buhay
Pag-ibig ko sa iyo ibibigay
Nais ko ay malaman mo
Na mahal kita

To the people:
Sana magustuhan nyo tong tab ko.
Please rate it kung may time kayo. Rock on!
Number 1 eto ngayon sa MYX. I really love the song.

------------
Chords used:|
------------

B	: X24442
F#	: 244322
Abm	: 466444
E	: 022100
C#m	: X46654
Ebm	: X68876
A2	: X02200

Intro: Drums 1st
       B-Abm-E
       B-Abm-A2

/ slide down
B hammer

e|----------7------|----------7-------|
B|-4h5-/-7----7----|-4h5-/-7----7-----|
G|-----------------|------------------|
D|-----------------|------------------|
A|-----------------|------------------|
E|-----------------|------------------|


e|----------7------|-11---------------|
B|-4h5-/-7----7----|-----12--10-------|
G|-----------------|------------------|
D|-----------------|------------------|
A|-----------------|------------------|
E|-----------------|------------------|



-------
Verse 1|
-------

B                F#
  Sa piling ba niya ikaw ay

Abm              E
  May lungkot na nararamdaman

B             F#            E
  Damdamin mo ba’y hindi maintindihan

B          F#        Abm
  At sa tuwing ako ang

        E
  Nasa iyong isipan

B            F#                   E
  May nakita ka ba na ibang kasiyahan


-------
REfrain|
-------

Ebm             Abm
  Nandito lang ako

C#m               F#
  Naghihintay sa iyo

        Ebm              Abm
  Na mapansin ang aking damdamin

      A2            F#
  Na para lang sa iyo


-------
Chorus |
-------

          B                F#
  Dahil ikaw ang sigaw ng puso ko

   Abm           E
  Ikaw ang nasa isip ko

       B            F#    Abm-E
  Ang nais ko ay malaman mo

               B               F#
  Na ikaw ang tanging pangarap ng buhay

      Abm         E
  Pag-ibig ko sa iyo ibibigay

  B             F#     A2   F#
  Nais ko ay malaman mo ooohh  

              B-Abm-F#-B-Abm-A2
  Na mahal kita


        
/ slide down
B hammer

e|----------7------|----------7-------|
B|-4h5-/-7----7----|-4h5-/-7----7-----|
G|-----------------|------------------|
D|-----------------|------------------|
A|-----------------|------------------|
E|-----------------|------------------|


e|----------7------|-11---------------|
B|-4h5-/-7----7----|-----12--10-------|
G|-----------------|------------------|
D|-----------------|------------------|
A|-----------------|------------------|
E|-----------------|------------------|




-------
Verse 2|
-------

B               F#
  Sa piling ba niya ikaw ay

Abm                     E
  May sakit na nararamdaman

B             F#             E
  Damdamin mo ba ay sinasaktan

B          F#
  At sa tuwing ako ang

Abm        E
  Nasa iyong panaginip

B           F#                  E
  Na tayong dalawa’y masayang magkapiling



-------
REfrain|
-------

Ebm             Abm
  Nandito lang ako

C#m               F#
  Naghihintay sa iyo

        Ebm              Abm
  Na mapansin ang aking damdamin

      A2            F#
  Na para lang sa iyo


-------
Chorus |
-------

          B                F#
  Dahil ikaw ang sigaw ng puso ko

   Abm           E
  Ikaw ang nasa isip ko

       B            F#    Abm-E
  Ang nais ko ay malaman mo

               B               F#
  Na ikaw ang tanging pangarap ng buhay

      Abm         E
  Pag-ibig ko sa iyo ibibigay

  B             F#     A2   F#
  Nais ko ay malaman mo ooohh  

              
  Na mahal kita haahh



-------
Bridge:|
-------

        Abm           F#         E
Sana’y pagbigyan ang nadaramang ito(nadaramang ito)

        Abm         F#         E    A2-F#
Sana'y masabi mo na mahal mo rin akooooooohhhhh



-------
Chorus | Pure guitar
-------

          B                F#
  Dahil ikaw ang sigaw ng puso ko

   Abm           E
  Ikaw ang nasa isip ko

       B            F#    E
  Ang nais ko ay malaman mo

---------------
With drums ulit|
---------------

               B               F#
  Na ikaw ang tanging pangarap ng buhay

      Abm         E
  Pag-ibig ko sa iyo ibibigay

  B             F#     A2     F#
  Nais ko ay malaman mo oooohhh


         B-F#-Abm-E 
Na mahal kita (ikaw ang sigaw ng puso)

         B-F#-Abm-A2
Na mahal kita (ikaw ang nasa isip ko)

         B-F#-Abm-E 
Na mahal kita (ikaw ang sigaw ng puso)

         B-F#-Abm-A2
Na mahal kita (ikaw ang nasa isip ko) 





#####################################
This is my other Version of the song#
#####################################


SA napapanood ko sa TV, Yung isa Gitara Gumagamit ng CApo.
Kung Ayaw nyo ung ginawa ko sa taas na chords.
You can try this one Kung may CApo kayo. Halos Parehas din.


----------------
Capo on 4th fret|
----------------

ALL CHORDS RELATIVE TO CAPO

------------
Chords used:|
------------

G	: 320033
D	: XX0232
Em	: 022000
C9	: 032033
Am	: X02210
Bm	: X24432
F	: 133211

Intro: DRUMS 1ST
       G-Em-C9
       G-Em-F

/ slide down
B hammer

e|-----------3-----|----------3-------|
B|-0h1-/-3------3--|-0h1-/-3-----3----|
G|-----------------|------------------|
D|-----------------|------------------|
A|-----------------|------------------|
E|-----------------|------------------|


e|-----------3-----|--7---------------|
B|-0h1-/-3------3--|------8----6------|
G|-----------------|------------------|
D|-----------------|------------------|
A|-----------------|------------------|
E|-----------------|------------------|



-------
Verse 1|
-------

G                D
  Sa piling ba niya ikaw ay

Em              C9
  May lungkot na nararamdaman

G              D            C9
  Damdamin mo ba’y hindi maintindihan

G          D        Em
  At sa tuwing ako ang

        C9
  Nasa iyong isipan

G                D          C9
  May nakita ka ba na ibang kasiyahan


-------
REfrain|
-------

Bm             Em
  Nandito lang ako

Am               D
  Naghihintay sa iyo

        Bm              Em
  Na mapansin ang aking damdamin

      F            D
  Na para lang sa iyo


-------
Chorus |
-------

          G                D
  Dahil ikaw ang sigaw ng puso ko

   Em           C9
  Ikaw ang nasa isip ko

       G            D    Em-C9
  Ang nais ko ay malaman mo

               G               D
  Na ikaw ang tanging pangarap ng buhay

      Em         C9
  Pag-ibig ko sa iyo ibibigay

  G             D     F   D
  Nais ko ay malaman mo ooohh

               G-Em-C9-G-Em-F
  Na mahal kita


/ slide down
B hammer

e|-----------3-----|----------3-------|
B|-0h1-/-3------3--|-0h1-/-3-----3----|
G|-----------------|------------------|
D|-----------------|------------------|
A|-----------------|------------------|
E|-----------------|------------------|


e|-----------3-----|--7---------------|
B|-0h1-/-3------3--|------8----6------|
G|-----------------|------------------|
D|-----------------|------------------|
A|-----------------|------------------|
E|-----------------|------------------|


-------
Verse 2|
-------

G               D
  Sa piling ba niya ikaw ay

Em                     C9
  May sakit na nararamdaman

G             D        C9
  Damdamin mo ba ay sinasaktan

G          D
  At sa tuwing ako ang

Em        C9
  Nasa iyong panaginip

G              D                C9
  Na tayong dalawa’y masayang magkapiling



-------
REfrain|
-------

Am             Em
  Nandito lang ako

Am               D
  Naghihintay sa iyo

        Bm              Em
  Na mapansin ang aking damdamin

      F            D
  Na para lang sa iyo


-------
Chorus |
-------

          G                D
  Dahil ikaw ang sigaw ng puso ko

   Em           C9
  Ikaw ang nasa isip ko

       G            D    Em-C9
  Ang nais ko ay malaman mo

               G               D
  Na ikaw ang tanging pangarap ng buhay

      Em         C9
  Pag-ibig ko sa iyo ibibigay

  G             D     F
  Nais ko ay malaman mo oooohhh

  D
  Na mahal kita haaaa


-------
Bridge:|
-------

        Em           D          C9
Sana’y pagbigyan ang nadaramang ito(nadaramang ito)

        Em         D         C9    F-D
Sana'y masabi mo na mahal mo rin akooooohhhh



-------
Chorus | Pure guitar
-------

          G                D
  Dahil ikaw ang sigaw ng puso ko

   Em           C9
  Ikaw ang nasa isip ko

       G            D    C9
  Ang nais ko ay malaman mo


---------------
With drums ulit|
---------------

              G               D
  Na ikaw ang tanging pangarap ng buhay

    Em         C9
  Pag-ibig ko sa iyo ibibigay

  G             D     F
  Nais ko ay malaman mo ooohhhh


-----
Coda:|
-----

         G-D-Em-C9
Na mahal kita (ikaw ang sigaw ng puso)

         G-D-Em-F
Na mahal kita (ikaw ang nasa isip ko)

         G-D-Em-C9
Na mahal kita (ikaw ang sigaw ng puso)

         G-D-Em-F 
Na mahal kita (ikaw ang nasa isip ko) 




For comments send me a message in Friendster. 


And u Can also add me as your friend Or send me a testimonial.hehehe
God bless!



Thanks.
Rock oUt.
 
            
Submit corrections

comments powered by Disqus
↑ Back to top | True Faith Chords for Dahil Ikaw. Lyrics for acoustic guitar and electric guitar. 1 Tablatures and chords are parodies/interpretations of the original songs. You may use it for private study, scholarship, research or language learning purposes only