» » »

Its Just Porn Mum Tabs (ver.1)

Artists:  A B C D E F G H I J K L M N O P Q R S T U V W X Y Z # 

Its Just Porn Mum Tabs (ver.1)

Trucks
Rating:
5/5 (2 votes)

Hard to play? Try these video lessons and learn fast.
                Song : It's just porn mum
I'm not sure of the bit and of the ending solo but the rest is true


Guitar1 verse
|----------------------------------------------------------------        
|----------------------------------------------------------------
|-------9----4-------9-9--6-6---2--------------------------------
|-------9----4-------9-7--6-6---2--------------------------------
|-------7----2-------7-7--4-6---0--------------------------------
|----------------------------------------------------------------

Guitar 2 verse
|----------------------------------------------------------------
|---------------------------5-4-2-4-2-2-0------------------------
|---------4----4-------------------------------------------------
|---------4----4-------------------------------------------------
|---------2----2-------------------------------------------------
|---0------------------------------------------------------------

|----------------------------------------------------------------
|----------------------------------------------------------------
|---------4--4--------4------------------------------------------
|---------4--4--2-----4------------------------------------------
|---------2--2--2-----2------------------------------------------
|---------------0------------------------------------------------

Chorus (Distortion)

|---------------------------------------------------------
|---------------------------------------------------------
|---------4-4-4-4-4---6-6-4---2-2-2-2-2-------------------
|--2-2-2--4-4-4-4-4---6-6-4---2-2-2-2-2-------------------
|--2-2-2--2-2-2-2-2---4-4-4---0-0-0-0-0-------------------
|--0-0-0--------------------------------------------------

Quiet Bit (Clean) (not sure)

|-------0---------2----------4---------------------------------
|-----0----4--------------5-----5--5--4--2--0------------------
|---------------4----------------------------------------------
|---2----------------------------------------------------------
|------------------------4----------0--------------------------
|--------------------------------------------------------------

Verse
Pre chorus
Chorus

After chorus   (porn mum, just porn mum...)
|----------------------------------------------------------------
|----------------------------------------------------------------
|----------------------------------------------------------------
|--22222222-77777777---------------------------------------------
|--22222222-77777777---------------------------------------------
|--00000000-55555555---------------------------------------------

Ending Solo Guitar 2 (With Loadsa Vibrato & Distortion) 
|-8-----7---5---5---------------|-----------------
|--------------------8---7-------|---5------------
|-----------------------------x3-|----------------
|---------------------------------|---------------
|---------------------------------|---------------
|---------------------------------|---------------
            
Hard to play? Try these video lessons and learn fast. | Correct




comments powered by Disqus
↑ Back to top | Tablatures and chords are parodies/interpretations of the original songs. You may use it for private study, scholarship, research or language learning purposes only