» » »

Trower Robin, Too Rolling Stoned Bass tabs (ver.1)

Artists:  A B C D E F G H I J K L M N O P Q R S T U V W X Y Z # 

Too Rolling Stoned Bass tabs (ver.1)

Trower Robin Tabs
 Rating:
4/5 (4 votes)
Too Rolling Stoned lessons Tabs too difficult? Try these video lessons and learn fast
1
                Intro:   8x
G----------------|---------------|
D-------------11-|---------------|
A-123-123-123----|123-123-123-1--|
E----------------|---------------|

 Verse: (there's lots of variation here)
G-----------|-----------|
D-----------|---1-3-1---|
A-33----123-|-33-----31-|
E---00-1----|-----------|

 Chorus:
G---------|----------|---------|
D-1-1---3-|-1-1------|-1-1---3-|
A----1-1--|----1-1-3-|----1-1--|
E---------|----------|---------|

 Same as Intro:   2x
G----------------|---------------|
D-------------11-|---------------|
A-123-123-123----|123-123-123-1--|
E----------------|---------------|

 Verse:
G-----------|-----------|
D-----------|---1-3-1---|
A-33----123-|-33-----31-|
E---00-1----|-----------|

 Chorus:
G---------|----------|---------|
D-1-1---3-|-1-1------|-1-1---3-|
A----1-1--|----1-1-3-|----1-1--|
E---------|----------|---------|

 Bridge 2x
G----------------|---------------|
D-------------11-|---------------|
A-123-123-123----|123-123-123-1--|
E----------------|---------------|

 Lead (Same as Verse) 4x
G-----------|-----------|
D-----------|---1-3-1---|
A-33----123-|-33-----31-|
E---00-1----|-----------|

Chorus:
G---------|----------|---------|
D-1-1---3-|-1-1------|-1-1---3-|
A----1-1--|----1-1-3-|----1-1--|
E---------|----------|---------|

Same as Intro:   2x
G----------------|---------------|
D-------------11-|---------------|
A-123-123-123----|123-123-123-1--|
E----------------|---------------|

 Verse: 3x
G-----------|-----------|----|
D-----------|---1-3-1---|----|
A-33----123-|-33-----31-|-3--|
E---00-1----|-----------|----|


 Outro:
G--------------|
D--------------|
A-333333333333-|
E--------------|

 Fade..
            
Submit corrections

comments powered by Disqus
↑ Back to top | Trower Robin Bass for Too Rolling Stoned. Lyrics for acoustic guitar and electric guitar. 1 Tablatures and chords are parodies/interpretations of the original songs. You may use it for private study, scholarship, research or language learning purposes only