» » »

Triumph, Tears In The Rain Bass tabs (ver.1)

Artists:  A B C D E F G H I J K L M N O P Q R S T U V W X Y Z # 

Tears In The Rain Bass tabs (ver.1)

Triumph Tabs
 Rating:
4/5 (4 votes)
Tears In The Rain lessons Tabs too difficult? Try these video lessons and learn fast
1
                -------------------------------------------------------------------------------
-------------------------------------------------------------------------------


Tuning: STANDARD

No Bass during first few measures.


  INTRO:
G|------------------------------------------------------|
D|------------------------------------------------------|
A|------------------------------------------------------|
E|-12\----12\----12\----12\----12\----12\----12\--------|

G|------------------------------------------------------------------|
D|------------------------------------------------------------------|
A|-----7-7-----5-7-----7-7-----5-7-----7-7-----5-3--3-2-2--0-0------|
E|-0-0-----0-0-----0-0-----0-0-----0-0-----0-0------------------3-2-|

G|------------------------------------------------------------------|
D|------------------------------------------------------------------|
A|-----7-7-----5-7-----7-7-----5-7-----7-5----5-3-------------------|
E|-0-0-----0-0-----0-0-----0-0-----0-0------------------------------|


  VERSE: "We passed the point..."
G|------------------------------------------------------------------|
D|------------------------------------------------------------------|
A|-----7-7-----5-7-----7-7-----5-7-----7-7-----5-3--3-2-2--0-0------|
E|-0-0-----0-0-----0-0-----0-0-----0-0-----0-0------------------3-2-|

G|------------------------------------------------------------------|
D|------------------------------------------------------------------|
A|-----7-7-----5-7-----7-7-----5-7-----7-7-----5-3--3-2-2--0-0------|
E|-0-0-----0-0-----0-0-----0-0-----0-0-----0-0-----------------3-2/-|


  PRE-CHORUS: "Nothin's ever gonna..."
G|------------7--------------7---(7)\----------------------------|
D|-----5/(7)------5/(7)-------------------2/-9-9----7-9---(9)\---|
A|-5---------------------5------------2----------10--------------|
E|---------------------------------------------------------------|


  CHORUS: "Tears in the rain..."
G|----------------------------------------------------------------------|
D|--------------------------------------------5-------------------------|
A|-2--5--7-------7-5--7\-------5----5-3--5-------5-3------------------5-|
E|--------------------------------------------------------0-2-3----3----|

G|-------------------------------------------------------------------|
D|-------------------------------------------------------------------|
A|-----7-7-----5-7-----7-7-----5-7------7-5----5-3-------------------|
E|-0-0-----0-0-----0-0-----0-0-----0-0-------------------------------|

  VERSE: "The time has come..."
G|------------------------------------------------------------------|
D|------------------------------------------------------------------|
A|-----7-7-----5-7-----7-7-----5-7-----7-7-----5-3--3-2-2--0-0------|
E|-0-0-----0-0-----0-0-----0-0-----0-0-----0-0------------------3-2-|

G|------------------------------------------------------------------|
D|------------------------------------------------------------------|
A|-----7-7-----5-7-----7-7-----5-7-----7-7-----5-3--3-2-2--0-0------|
E|-0-0-----0-0-----0-0-----0-0-----0-0-----0-0-----------------3-2/-|


  PRE-CHORUS: "We lost the chance..."
G|------------7--------------7---(7)\----------------------------|
D|-----5/(7)------5/(7)-------------------2/-9-9----7-9---(9)\---|
A|-5---------------------5------------2----------10--------------|
E|---------------------------------------------------------------|

G|----------------------------------------------------------------------|
D|--------------------------------------------5-------------------------|
A|-2--5--7-------7-5--7\-------5----5-3--5-------5-3------------------5-|
E|--------------------------------------------------------0-2-3----3----|

  BRIDGE: (Drum riff)
G|-------------------------------------|
D|-------------------------------------|
A|-3-----------------------------------|
E|-------------------------------------|


  GUITAR SOLO:
G|----------------------------------------------------------------|
D|----------------------------------------------------------------|
A|-----7-7-----5-7-----7-7-----5-7-----7-7-----5-3--3-3-3-3-3-3-3-|
E|-0-0-----0-0-----0-0-----0-0-----0-0-----0-0--------------------|

G|--------------------------------------------------------------------|
D|-----9-9-----7-9-----9-------7-9-----9-------7------------------7-9-|
A|-----------------------------------------------10--10-9-9-10-10-----|
E|-7-7-----7-7-----7-7-----7-7-----7-7-----7-7------------------------|

G|------------------------------------------------------------------|
D|-----9-9-----7-9-----9-9---------9-9-9-9-9-9-7--------------------|
A|-----------------------------------------------10--10-9-9-7-7-9-9-|
E|-7-7-----7-7-----7-7-----7-7-5-7----------------------------------|


  PRE-CHORUS: "So many times...."
G|---------------------------------------------------------------|
D|------------7----------------7----------2/-9-9----7-9---(9)\---|
A|-----5/(7)------------5/(7)---------2----------10--------------|
E|-5----------------5--------------------------------------------|


  CHORUS: "Tears in the rain..."
G|-----------------------------------------------------------------------|
D|---------------------------------------------5-------------------------|
A|-2--5--7-------7-5--7\-------5\----5-3--5-------5-3------------------5-|
E|---------------------------------------------------------0-2-3----3----|

G|-------------------------------|
D|-------------------------------|
A|-----7-5---7\--2--2-2-2--------|
E|-0-0---------------------------|

G|-----------------------------------------------------------------------|
D|---------------------------------------------5-------------------------|
A|-2--5--7-------7-5--7\-------5\----5-3--5-------5-3------------------5-|
E|---------------------------------------------------------0-2-3----3----|

  OUTTRO:
G|------------------------------------------------------------------|
D|------------------------------------------------------------------|
A|-----7-7-----5-7-----7-7-----5-7-----7-7-----5-3--3-2-2--0-0------|
E|-0-0-----0-0-----0-0-----0-0-----0-0-----0-0------------------3-2-|

G|------------------------------------------------------------------|
D|------------------------------------------------------------------|
A|-----7-7-----5-7-----7-7-----5-7-----7-7-----5-3--3-2-2--3-3--5-5-|
E|-0-0-----0-0-----0-0-----0-0-----0-0-----0-0----------------------|

G|--------------------------------------------------------------------|
D|-----------------------------------------------------9-9--7-7-------|
A|-----7-7-----5-7-----7-7-----5-7-----7-7-----5-3--3/-----------10-9-|
E|-0-0-----0-0-----0-0-----0-0-----0-0-----0-0------------------------|

  FADE OUT:
G|------------------------------------------------------------------|
D|------------------------------------------------------------------|
A|-----7-7-----5-7-----7-7-----5-7-----7-7-----5-3--3-2-2--0-0------|
E|-0-0-----0-0-----0-0-----0-0-----0-0-----0-0------------------3-2-|


| /  slide up
| \  slide down
|( ) not struck
===============================================================================
            
Submit corrections

comments powered by Disqus
↑ Back to top | Triumph Bass for Tears In The Rain. Lyrics for acoustic guitar and electric guitar. 1 Tablatures and chords are parodies/interpretations of the original songs. You may use it for private study, scholarship, research or language learning purposes only