>
 >
Street Fighter Man

Street Fighter Man Guitar Tabs

Triumph - Street Fighter Man chords, tabs, tablatures, lyrics

Guitar lessons | Add/correct | Request | Top 50 tabs Artists:  A B C D E F G H I J K L M N O P Q R S T U V W X Y Z 0-9

Street Fighter Man Guitar Tabs – Triumph

CD, Sheet music, Poster

Do you like Street Fighter Man? Share with your friends now
Tabs
Street Fighter:

A: [Intro] (0:00 - 0:15)
||--------------------------------------------------------|
||--------------------------------------------------------|
||---------------10--9--10--9--12----------------12-11-9--|
||---------------10--9--10--9--12----------------12-11-9--|
||----------------8--7---8--7--10----------------10--9-7--|
||-0-0-0-0-0-0-0------------------0-0-0-0-0-0-0-----------|

--------------------------------------------------------|
--------------------------------------------------------|
---------------10--9--10--9--12----------------12-11-9--|
---------------10--9--10--9--12----------------12-11-9--|
----------------8--7---8--7--10----------------10--9-7--|
-0-0-0-0-0-0-0------------------0-0-0-0-0-0-0-----------|

						(0:13 - 0:15)
------------------------------------|-------------------|
------------------------------------|-------------------|
12-11-9---12-11-9---12-11-9---11----|-------------------|
12-11-9---12-11-9---12-11-9---11----|--------10-12--14--|
10--9-7---10--9-7---10--9-7----9----|--10-12------------|
---------------------------------0~~~~~10-12------------|

B: [Verse 1] (0:16 - 0:34)

Street fighting man, he's a hard one yes indeed
----------------------------------------------||
----------------------------------------------||
------------------------------9--9--7--9--12--||
------------------------------9--9--7--9--12--||
------------------------------7--7--5--7--10--||
-0-0-0-0-0-0-0--0-0-0-0-0-0-0-----------------||

Just got in from Houston, who knows when he'll leave
---------------------------------------------------||
---------------------------------------------------||
---------------9-------------------9--9--7--9--12--||
---------------7-------------------9--9--7--9--12--||
---------------7-------------------7--7--5--7--10--||
-0-0-0-0-0-0-0---0-0-0-0-0-0-0-0-0-----------------||

Made his reputation in small town southern bars  -  Everyone respects,...
-----------------------------------------------------------------------
-----------------------------------------------------------------------
--------------------------------------------5~~~~~~~--7~~~~~~~--9--10--
-9-9-9-9-9-9-9-9-9-9-9-9-9-9-9-9-9~~~~~~~~--5~~~~~~~--7~~~~~~~--9--10--
-9-9-9-9-9-9-9-9-9-9-9-9-9-9-9-9-9~~~~~~~~--3~~~~~~~--5~~~~~~~--7---8--
-7-7-7-7-7-7-7-7-7-7-7-7-7-7-7-7-7~~~~~~~~-----------------------------
[-------------PM-------------]

C: [Chorus 1] (0:35 - 0:55)

Street fighter street fighting man		    Street fighter street fighting man
--------------------------------------------|------------------------------------|
--------------------------------------------|------------------------------------|
------4---7--9--4---7-----4---2h3p2h5///\\\-|-4---7--9--4---7--4---2h3p2h5///\\\-|
------2---5--7--2---5-----2-----------------|-2---5--7--2---5--2-----------------|
--------------------------------------------|------------------------------------|
-0~~~~------------------------------------0~~~~~~~~------------------------------|

You better watch yourself today	While your on the run
----------------------------|----------------------------|
----------------------------|----------------------------|
-4-----4-----4-----5h7p5p0--|-4-----4-----4-----7--7--4--|
-2-----2-----2-----5h7p5p0--|-2-----2-----2-----7--5--4--|
---x-x---x-x---x-x----------|---x-x---x-x---x-x-5--5--2--|
----------------------------|----------------------------|

Cover the tracks that	you lay down or your days gonna come
--------------------------------------------------------||-------------------|
--------------------------------------------------------||-------------------|
-4-----4-----4------9--7--4---3o---2--------------------||-------------------|
-2-----2-----2------9--7--4---3o---2---5---3------------||--------10-12--14--|
---x-x---x-x---x-x--7--5--2---1o---0---5---3------------||---10-12-----------|
---------------------------------------3---1--0(Whammy)~~~~~~10-12-----------|

D: [Verse 2] (0:58 - 1:16)

He's got a lady waiting back home in new orleans
-----------------------------------------------------------------------
-----------------------------------------------------------------------
------------------------------9--9--7--9--12---------------------------
------------------------------9--9--7--9--12---------------------------
------------------------------7--7--5--7--10---------------------------
-0-0-0-0-0-0-0--0-0-0-0-0-0-0------------------------------------------

A Lousiana sweetheart they call the southern queen
-----------------------------------------------------------------------
-----------------------------------------------------------------------
---------------9-------------------9--9--7--9--12----------------------
---------------7-------------------9--9--7--9--12----------------------
---------------7-------------------7--7--5--7--10----------------------
-0-0-0-0-0-0-0---0-0-0-0-0-0-0-0-0-------------------------------------

He promised her they'd settle down and make a...  -  But he said babe you've got...
-----------------------------------------------------------------------
-----------------------------------------------------------------------
--------------------------------------------5~~~~~~~--7~~~~~~~--9--10--
-9-9-9-9-9-9-9-9-9-9-9-9-9-9-9-9-9~~~~~~~~--5~~~~~~~--7~~~~~~~--9--10--
-9-9-9-9-9-9-9-9-9-9-9-9-9-9-9-9-9~~~~~~~~--3~~~~~~~--5~~~~~~~--7---8--
-7-7-7-7-7-7-7-7-7-7-7-7-7-7-7-7-7~~~~~~~~-----------------------------
[-------------PM-------------]

E: [Chorus 2] (1:18 - 1:38)

Street fighter street fighting man			Street fighter street fighting man
--------------------------------------------|------------------------------------|
--------------------------------------------|------------------------------------|
------4---7--9--4---7-----4---2h3p2h5///\\\-|-4---7--9--4---7--4---2h3p2h5///\\\-|
------2---5--7--2---5-----2-----------------|-2---5--7--2---5--2-----------------|
--------------------------------------------|------------------------------------|
-0~~~~------------------------------------0~~~~~~~~------------------------------|

You better watch yourself today		While your on the run
----------------------------|----------------------------|
----------------------------|----------------------------|
-4-----4-----4-----5h7p5p0--|-4-----4-----4-----7--7--4--|
-2-----2-----2-----5h7p5p0--|-2-----2-----2-----7--5--4--|
---x-x---x-x---x-x----------|---x-x---x-x---x-x-5--5--2--|
----------------------------|----------------------------|

Cover the tracks that	  you lay down or your days gonna come
-------------------------------------------------------------|
-------------------------------------------------------------|
-4-----4-----4------9--7--4---3o---2-------------------------|
-2-----2-----2------9--7--4---3o---2---5---3-----------------|
---x-x---x-x---x-x--7--5--2---1o---0---5---3-----------------|
---------------------------------------3---1--0(Whammy)~~~~~~|

F: [Short Interlude] (1:39 - 1:47)

--------------------------|--------------------------|----------------------12~~|
--------------------------|--------------------------|--------------------8-10~~|
--------------------5--7--|--------------------5--7--|-----------5--7--8--------|
-----------2--3--5--------|-----------2--3--5--------|--5--7--8-----------------|
--2--3--5-----------------|--2--3--5-----------------|--------------------------|
--------------------------|--------------------------|--------------------------|

G: [Guitar Solo] (1:48 - 2:47)

H: [Verse 3] (2:48 - 3:07)

He met his man at steeler's inn where they play cards for pay
-----------------------------------------------------------------------
-----------------------------------------------------------------------
-----------------------------------------9--9--7--9--12----------------
-----------------------------------------9--9--7--9--12----------------
-----------------------------------------7--7--5--7--10----------------
-0-0-0-0-0-0-0--0-0-0-0-0-0-0------------------------------------------
[---------No Volume---------]

In a flash two shots were fired and one man rode away
-------------------------------------------------------------------
-------------------------------------------------------------------
-------------------------------------9--9--7--9--12----------------
-------------------------------------9--9--7--9--12----------------
-------------------------------------7--7--5--7--10----------------
-0-0-0-0-0-0-0--0-0-0-0-0-0-0--------------------------------------
[---------No Volume---------]

The crowd began to circle him as he lay there dying  -  And in the night he thought...
-----------------------------------------------------------------------
-----------------------------------------------------------------------
--------------------------------------------5~~~~~~~--7~~~~~~~--9--10--
-9-9-9-9-9-9-9-9-9-9-9-9-9-9-9-9-9~~~~~~~~--5~~~~~~~--7~~~~~~~--9--10--
-9-9-9-9-9-9-9-9-9-9-9-9-9-9-9-9-9~~~~~~~~--3~~~~~~~--5~~~~~~~--7---8--
-7-7-7-7-7-7-7-7-7-7-7-7-7-7-7-7-7~~~~~~~~-----------------------------
[-------------PM-------------]

I: [Chorus 3] (3:08 - 3:28)

Street fighter street fighting man			Street fighter street fighting man
--------------------------------------------|------------------------------------|
--------------------------------------------|------------------------------------|
------4---7--9--4---7-----4---2h3p2h5///\\\-|-4---7--9--4---7--4---2h3p2h5///\\\-|
------2---5--7--2---5-----2-----------------|-2---5--7--2---5--2-----------------|
--------------------------------------------|------------------------------------|
-0~~~~------------------------------------0~~~~~~~~------------------------------|

You better watch yourself today		While your on the run
----------------------------|----------------------------|
----------------------------|----------------------------|
-4-----4-----4-----5h7p5p0--|-4-----4-----4-----7--7--4--|
-2-----2-----2-----5h7p5p0--|-2-----2-----2-----7--5--4--|
---x-x---x-x---x-x----------|---x-x---x-x---x-x-5--5--2--|
----------------------------|----------------------------|

Cover the tracks that	  you lay down or your days gonna come
-------------------------------------------------------------|
-------------------------------------------------------------|
-4-----4-----4------9--7--4---3o---2-------------------------|
-2-----2-----2------9--7--4---3o---2---5---3-----------------|
---x-x---x-x---x-x--7--5--2---1o---0---5---3-----------------|
---------------------------------------3---1--0(Whammy)~~~~~~|

Street Fighter Reprise:

J: [Intro]: (3:30 - 4:13)

E	D	G
E	D	G
E	D	G	Bm	  D
E	D	G	A

K: [Verse]: (4:14 - 4:57)

E		  D		   G
Far away over the hills and over the plains
E			D		G
Lawmen search for the man with no last name
E		  D	   G		B	D///
A killer killed a killer but a killers got to take the blame
E			D		G	A
Life seems wasted on some it seems such a shame

L: [Chorus]: (4:58 - 5:40)

E		D	       G		  Bm	D///
Street fighter man you got to run while you can
E		D	       G		  Bm	D///
Street fighter man you got to run while you can
E		D	       G		  Bm	D///
Street fighter man you got to run while you can

M: [Thrash Ending] (5:41 - 6:04)
----------------------------------------|-------------------------------------|
----------------------------------------|-------------------------------------|
-4--4-4-4-4--4-4-4-4--4-4-4-4--4-4-4--5-|-5-5-5-5--5-5-5-5--5-5-5-5--5-5-5--6-|
-4--4-4-4-4--4-4-4-4--4-4-4-4--4-4-4--5-|-5-5-5-5--5-5-5-5--5-5-5-5--5-5-5--6-|
-2--2-2-2-2--2-2-2-2--2-2-2-2--2-2-2--3-|-3-3-3-3--3-3-3-3--3-3-3-3--3-3-3--4-|
----------------------------------------|-------------------------------------|

----------------------------------------|-------------------------------------|
----------------------------------------|-------------------------------------|
-6--6-6-6-6--6-6-6-6--6-6-6-6--6-6-6--7-|-7-7-7-7--7-7-7-7--9-9-9-9--9-9-9----|
-6--6-6-6-6--6-6-6-6--6-6-6-6--6-6-6--7-|-7-7-7-7--7-7-7-7--9-9-9-9--9-9-9----|
-4--4-4-4-4--4-4-4-4--4-4-4-4--4-4-0--5-|-5-5-5-5--5-5-5-5--7-7-7-7--7-7-7-7--|
----------------------------------------|-------------------------------------|

----------------------------------------|-------------------------------------|
----------------------------------------|-------------------------------------|
-4--4-4-4-4--4-4-4-4--4-4-4-4--4-4-4--5-|-5-5-5-5--5-5-5-5--5-5-5-5--5-5-5--6-|
-4--4-4-4-4--4-4-4-4--4-4-4-4--4-4-4--5-|-5-5-5-5--5-5-5-5--5-5-5-5--5-5-5--6-|
-2--2-2-2-2--2-2-2-2--2-2-2-2--2-2-2--3-|-3-3-3-3--3-3-3-3--3-3-3-3--3-3-3--4-|
----------------------------------------|-------------------------------------|

----------------------------------------|-------------------------------------|
----------------------------------------|-------------------------------------|
-6--6-6-6-6--6-6-6-6--6-6-6-6--6-6-6--7-|-7-7-7-7--7-7-7-7--9-9-9-9--9-9-9----|
-6--6-6-6-6--6-6-6-6--6-6-6-6--6-6-6--7-|-7-7-7-7--7-7-7-7--9-9-9-9--9-9-9----|
-4--4-4-4-4--4-4-4-4--4-4-4-4--4-4-0--5-|-5-5-5-5--5-5-5-5--7-7-7-7--7-7-7-7--|
----------------------------------------|-------------------------------------|

---------------------------14~~~~~~~~~~~|
----------------------------x-----------|
-9--7--9-10---9--7--9-10---12-----------|
-9--7--9-10---9--7--9-10---12-----------|
-7--5--7--8---7--5--7--8---10-----------|
----------------------------------------|

N: [Acoustic Touch] (6:04 - 6:26)
-14--15--17---15--14--12---13--12--10---12--10--9-------------15~~~~---||
--------------------------------------------------------------12-------||
--------------------------------------------------10--9--11---12----1--||
------------------------------------------------------------9S12----2--||
--------------------------------------------------------------------2--||
--------------------------------------------------------------------0--||





Comments


Popular Triumph tabs & chords
Somebody's Out There Bass Tabs
Spellbound Bass Tabs
Lay It On The Line Chords
Suitcase Blues Chords
Blinding Light Show (Intro) Tabs
Glad Hand Tabs
Spellbound (Intro) Tabs
Spellbound 1 Tabs
Hold On Ukulele
Suitcase Blues Ukulele


Song lyrics



↑ Back to top | Tablatures and chords are parodies/interpretations of the original songs. You may use it for private study, scholarship, research or language learning purposes only
© 2014 AZChords.com Contact us | Privacy policy | DMCA | Add/correct tabs | Request tabs | Top 50 tabs