» » »

Triumph, Somebody's Out There Bass tabs (ver.1)

Artists:  A B C D E F G H I J K L M N O P Q R S T U V W X Y Z # 

Somebody's Out There Bass tabs (ver.1)

Triumph Tabs
 Rating:
4/5 (4 votes)
Somebody's Out There lessons Tabs too difficult? Try these video lessons and learn fast
1
                -------------------------------------------------------------------------------
			     SOMEBODY'S OUT THREE - Triumph
-------------------------------------------------------------------------------


Tuning: STANDARD

  No Bass during first verse.

G|-------------------------------------------------------------------------------|
D|-------------------------------------------------------------------------------|
A|-9-h10-9-10-12-10-0-5-5-5-5-5-5-5-5-5-5-5-5-5-5-5-/10--------9-10-9-10-12-10-0-|
E|-------------------------------------------------------------------------------|


   VERSE: "All the odds are..."
G|--------------------------------------------------------------------------------|
D|--------------------------------------------------------------------------------|
A|-5-5-5-5-5-5-5-5-5-5-5-5-5-5-5-5-3-3-3-3-3-3-3-3---------------3-5-5-5-5-5-5-5-5|
E|-------------------------------------------------3-3-3-3-3-3-3------------------|

G|---------------------------------------------------|
D|---------------------------------------------------|
A|-5-5-5-5-5-5-5-5-3-3-3-3-3-3-3-3-------------------|
E|---------------------------------3-3-3-3-3-3-2-3-2-|


    PRE-CHORUS: "Half our lives..."
G|--------------------------------------------------|
D|--------------------------------------------------|
A|------------------------9-------------------------|
E|-0-0-0-0-0-0-0-0-2---2/---10-3--3-3--3-3--3-3--3--|

G|---------------------------------------------------|
D|---------------------------------------------------|
A|-2---2-2---4---4-4---4-5---5-5---------------------|
E|--------------------------------3-/5-5-5-5-5-5-5-5-|


    CHORUS: "Somebody's out there..."
G|--------------------------------------------------|
D|--------------------------------------------------|
A|-5------------------2-3----------------2-3-5------|
E|------5-3-----2-2-3---------0-2-3-----------------|

G|--------------------------------------------------------|
D|--------------------------------------------------------|
A|-5------------------------------------------------------|
E|---5-3-----2-3-2-0------0-2------2-3-------3--5---------|


G|-----------------------------------------------------------------|
D|-----------------------------------------------------------------|
A|-5-5-5-5-5-5-5-5-5-5-5-5-5-5-5-5---------------------------------|
E|---------------------------------3-3-3-3-3-3-3-3-3-3-3-3-3-3-5-5-|

G|-----------------------------------------------------------------|
D|---------------------------------------------------4-5-4-5-7-5---|
A|-5-5-5-5-5-5-5-5-5-5-5-5-5-5-5-5-------------------------------0-|
E|---------------------------------3-3-3-3-3-3-3-3-3---------------|


   VERSE: "Standing in the shadows..."  (Repeat VERSE section from above)

   PRE-CHORUS: "All the fear of the..."  (Repeat PRE-CHORUS section from above)

   CHORUS: "Somebody's out there..."  (Repeat CHOURS section from above)

   GUITAR SOLO: (Repeat VERSE section from above)

   "I can feel it inside me..."
G|-----------------------------------------------------------|
D|-----------------------------------------------------------|
A|------------------------------------------------2---2-2----|
E|-0---0-0----2---2-2----3---3-3---3-3---3-3---3-------------|

G|---------------------------------------------------------------|
D|---------------------------------------------------------------|
A|-4---4-4---4-5----5-5---------------------------------14-------|
E|------------------------3-5-5-5-5-5-5-5--7---7-7---7/----------|

   "Somebody's out there..."
G|----------------------------------------------------------------------------------|
D|----------------------------------------------------------------------------------|
A|------------------5-----------------7------------------7-5------------------------|
E|-0-------5-----------------5-----------------5-----5-7----------0-4-5-5-5-5-5-5-5-|

G|-----------------------------------------------------------------|
D|-----------------------------------------------------------------|
A|-7-----------------7-5---------------------7----6-7--------------|
E|---------5-----5-7---------0-4-5--5--5--5--------------5---4-5-4-|

G|---------------------------------------|
D|---------------------------------------|
A|---------------------------------------|
E|-2-----2-3-----3-5------5-7------------|

   FADE OUT ENDING: "Some daaaaaay..."
G|----------------------------------------|
D|----------------------------------------|
A|----------------------------------------|
E|-0------0-4-------4-5-------5-7-------7-|


| /  slide up
| h  hammer-on
===============================================================================
            
Submit corrections

comments powered by Disqus
↑ Back to top | Triumph Bass for Somebody's Out There. Lyrics for acoustic guitar and electric guitar. 1 Tablatures and chords are parodies/interpretations of the original songs. You may use it for private study, scholarship, research or language learning purposes only