>
 >
Little Boy Blues

Little Boy Blues Guitar Tabs

Triumph - Little Boy Blues chords, tabs, tablatures, lyrics

Guitar lessons | Add/correct | Request | Top 50 tabs Artists:  A B C D E F G H I J K L M N O P Q R S T U V W X Y Z 0-9

Little Boy Blues Guitar Tabs – Triumph

CD, Sheet music, Poster

Do you like Little Boy Blues? Share with your friends now
Tabs

Standard Tuning    12/8 Timing

One of my favorite pieces. The entire song is based on emotion so good luck
trying match it. The music is rather upbeat and getting the solo to roll
smoothly is quite a challenge. Reading it is also a little difficult with all
the pulls and hammer-ons going on.

I would recommend listening to the song on Triumph's 'Thunder Seven', it is
the last track and is an instrumental to boot!

         E   E E E E
E|---|---------------|
B|---|---------------|
G|-2-|-------------7-|
D|-4-|-----------7---|
A|---|---7---7h9-----|
E|---|---------------|

        H.           Q     E  E  E  S S
E|---|----------------------------------|
E|---|----------------------------------|
E|12-|------------------------------7-9-|
E|-8-|--9------------L\----------7------|
E|---|---------------------7--9---------|
E|---|----------------------------------|

  H.           Q        E   E   E   E
-----------------------------------10--|
---------------------------10--12------|
--7------------L\~----/11--------------|
---------------------------------------|
---------------------------------------|
---------------------------------------|

   H          E   E   S S Q.     E   E
----------------------------------------|
--12~--------10p--7---------------------|
---------------------10-9-7------9p--7--|
----------------------------------------|
----------------------------------------|
----------------------------------------|

   |--3-|                             |-3-|
   S  S S E  Q    E   E   Q.     Q    S S S
---------------------------------------------|
--10p--------8----7h--8----------------------|
--------x----------------11------9----7-9-7s-|
------x--------------------------------------|
---x-----------------------------------------|
---------------------------------------------|

  Q.     Q      Q      E   S  S   E   E  E
--------------------------------------------|
---------------10h----10--10p-7-/12--10-----|
--6------L-------------------------------7--|
--------------------------------------------|
--------------------------------------------|
--------------------------------------------|

  Q.       E  E  S  S H         E  E
--------------------------------------|
--------------------------------------|
--L~------/9--9--9p-7-9------------7--|
-------------------------------/9-----|
--------------------------------------|
--------------------------------------|

                    |-3|
    Q    Q    E  E  E  Q    H
--------------------------------------|
--------------------------------------|
--7g9----9----9--7--9-----------------|
-----------------------9----L\--------|
--------------------------------------|
--------------------------------------|

   Q    E  Q    E    Q.      Q.
---------------------------------------|
---------------------------------------|
--/9----7--6----7--7g6\----------------|
-----------------------------5(5)------|
---------------------------------------|
---------------------------------------|

                 |-3|          |--3-|
    H        S S E  Q      S S Q    H
---------------------------------------------|
-------------7-------------------------------|
---------------9-7--9----/11-9-7----7--------|
--5g4----------------------------------------|
---------------------------------------------|
---------------------------------------------|

  |-----3----|          |-3-|
  H          Q     E    S S S  Q.     Q     S
----------------------------------------------|
-----------/12----10--------------------------|
----------------------/10-9-7-/9-----------12-|
----------------------------------------------|
----------------------------------------------|
----------------------------------------------|

   H         E   E   S  S  Q.       E  E
--14--------12--10--12--------------------|
-----------------------12--Lb-------x-----|
---------------------------------------7--|
-----------------------------------/9-----|
------------------------------------------|
------------------------------------------|

                |--3-|
    Q.     Q    Q    H         E   E  E
-----------------------------------------|
----------------7------------------------|
--7g9------9-----------------------------|
---------------------7\-----------/9--9--|
-----------------------------------------|
-----------------------------------------|

    Q     E   Q    E  S  S Q       E   E   S
----------------------------------------------|
--/10----10--------7------------------10--12--|p
-------------/9-------9p-7-L\----/11----------|
----------------------------------------------|
----------------------------------------------|
----------------------------------------------|

   Q.       Q    E    Q     Q     E  E
-----------------7----------------------|
--12------/10-------/12----10-----------|
---------------------------------/9--7--|
----------------------------------------|
----------------------------------------|
----------------------------------------|

                     |--3--| |--3--| |--3--|
  S S  Q     Q.      S  S  S S  S  S S  S  S
---------------------------------------------|
---------------------5p-3p-0-5p-3p-0-5p-3p-0-|
--9------------------------------------------|
----9b-L-----L\------------------------------|
---------------------------------------------|
---------------------------------------------|

    Q    E     Q     E    Q     Q     E   E
-------------/17----17--/19----17----14------|
--/10----L/------------------------------15--|
---------------------------------------------|
---------------------------------------------|
---------------------------------------------|
---------------------------------------------|

    S  S  S  S  S  S   S  S  S  S  S  S   S
------17-17-17-17-17-----17-17-17-17-17-----1-|
--/17----------------/17----------------/17---|
----------------------------------------------|
----------------------------------------------|
----------------------------------------------|
----------------------------------------------|

   Q.       E   E   E    E   E   E    E   E
----------/24--22--19------------------------|
-----------------------/24--22--19-------22--|
--16--------------------------------/21------|
---------------------------------------------|
---------------------------------------------|
---------------------------------------------|

   S   S   Q     H.           Q     S  S
-----------------------------------------|
--------------------------------------15-|
--21p-19~--L-----L-----------------16----|
-----------------------------------------|
-----------------------------------------|
-----------------------------------------|

                                 |------3----
      Q     Q     E    E   Q     H         E
---------------------------------------------|
--15g17----17----17p--15--17b----x---------x-|
---------------------------------------------|
------------------------------------------/9-|
---------------------------------------------|
---------------------------------------------|

    Q    Q    E   E  Q     E    E  E   E
------------------------------------------|
--------------------------10--------------|
--7g9----9----9p--7--9--------/11--9p--7--|
------------------------------------------|
------------------------------------------|
------------------------------------------|


  S S Q    Q.      H.
--------------------------------|---------------|
--------------------------------|---------------|
--9-----------------------------|----Drum-------|
----9-9----9~------L------------|--Interlude----|
--------------------------------|---------------|
--------------------------------|---------------|

    Q.     S S  S S T  T  T  T T  T  T T T  T
-----------7-9-10-9-7h-9p-7----7--------------|
--/12-----------------------10---10p-7---7-10-|
---------------------------------------9------|
----------------------------------------------|
----------------------------------------------|
----------------------------------------------|

                    |---3---|
   Q.       E   E   S   S   S  E   E   E    E
-----------14--12--10h-12p-10p-9--10p--9--/17-|
----------------------------------------------|
----------------------------------------------|
----------------------------------------------|
--/7\-----------------------------------------|
----------------------------------------------|

                       |--3--| |--3--|  |--3-
    Q.      Q.         S  S  S S  S  S  S  S
----------------------10p-7----7-------------|
----------------------------10---10p-7-10p-7-|
--/16-------Lpbr-----------------------------|
---------------------------------------------|
---------------------------------------------|
---------------------------------------------|

                     |--3--| |--3--| |--3--|
  Q     S  S Q.      S  S  S S  S  S S  S  S
---------------------------------------------|
---------------------0h-2h-3-5p-3p-2-0h-3h-5-|
--7/-----------------------------------------|
--------9p-7-9\------------------------------|
---------------------------------------------|
---------------------------------------------|

    Q.       E   E   S  S   Q     E   E     E
----------------------------------------------|
--/10/------19--17--15----/17----15---L\------|
-----------------------16-----------------/16-|
----------------------------------------------|
----------------------------------------------|
----------------------------------------------|

   Q         E   Q     E   Q     E      Q
--------------------------18----21--21g17----|
--17b----18g17--15---------------------------|
----------------------15---------------------|
---------------------------------------------|
---------------------------------------------|
---------------------------------------------|

                    |---3---|
      Q.      Q     S   S   S   H         E
--15g17-------L----15h-17p-15s-14--------15--|
---------------------------------------------|
---------------------------------------------|
---------------------------------------------|
---------------------------------------------|
---------------------------------------------|

                    |---3---|
    Q     E   Q     S   S   S   Q     E   Q
--/15----14----------------------------------|
-------------17----15h-17p-15p-14----14--14s-|
---------------------------------------------|
---------------------------------------------|
---------------------------------------------|
---------------------------------------------|

                    |-----------5----------|
  Q.       Q        E     E    E     E     E
---------------------------------------------|
--7------<>7----/<>10--<>10--<>7--<>12--<>10-|
---------------------------------------------|
---------------------------------------------|
---------------------------------------------|
---------------------------------------------|

  Q    E      E    E    S    S    Q.      Q
---------------------------------------------|
---------------------------------------------|
-------9--7g<>9--<>9--<>9p-<>7-<>11\---------|
---------------------------------------------|
---------------------------------------------|
---------------------------------------------|

      Q     Q     E   E   S  S   Q     Q.
---------------------------------------------|
--15g17----17----17--15--17------------------|
----------------------------16b--L-----L\----|
---------------------------------------------|
---------------------------------------------|
---------------------------------------------|

                                           |-
    Q     E   Q      E   Q      E    Q     S
----------------------------------------------|
--/17----15--14-------------------------------|
-------------------/16--15--------------------|
-------------------------------17p--16----14--|h
----------------------------------------------|
----------------------------------------------|

   Q.      Q     H.             E
-----------------------------------|
-------------------------------17--|
------------------------------/16--|
--12-------L\----------------------|
-----------------------------------|
-----------------------------------|

   H.             Q.       Q.
-----------------------------------|
---L-------------------------------|
---L------------/16------/18\------|
-----------------------------------|
-----------------------------------|
-----------------------------------|

   Q.     Q     S  S  Q     S  S  S  S  T   T
---------------------------14-15-17-15-14h-15-|
--17------L----14-15-17-----------------------|
--18------L-----------------------------------|
----------------------------------------------|
----------------------------------------------|
----------------------------------------------|

                                       |-----
   T  T  T  T  T  T  T  T  T  T  T  T  T  T
----------------------------------------------|
--14-15-14----14------------------------------|
-----------16----16-14----14-16-14----14------|
-----------------------16----------16----16-1-|
----------------------------------------------|
----------------------------------------------|

      Q     E    Q      E  S  S Q       E   E
----------------------------------------------|
--/<>12----10------------------------------10-|
---------------/11----/11--9p-7-L\----/11-----|
----------------------------------------------|
----------------------------------------------|
----------------------------------------------|

   Q.       Q     E    Q     Q     E   E
------------------------------------------|
--12------/10----12--/12----10------------|
----------------------------------/9--/9--|
------------------------------------------|
------------------------------------------|
------------------------------------------|

                                |--3-| |--3--
  S  S Q    Q.     S S  S S S S S S  S S  S
----------------------------------------------|
---------------------------------------9-10-1-|
--9p-7-L----L-----------------6-7-9-11--------|
----------------------------9-----------------|
--------------------------9-------------------|
-------------------7-9-10---------------------|

   E   E    E   E   E   E   E   E   E    E
--14--12-------19--17--14---------------------|
---------------------------19--17--15---------|
----------/16--------------------------/18--1-|
----------------------------------------------|
----------------------------------------------|
----------------------------------------------|

     S S S  S S S    S S S  S S S  T  T T T
---------7------7--------7------7-------------|
-------7------7--------7------7---10p-7---7-1-|
--/<>9-----/9-----/<>9-----/9-----------9-----|
----------------------------------------------|
----------------------------------------------|
----------------------------------------------|

    Q      E   E   E   E    E   E   E    E
--/17---------24--22--19----------------------|
---------/19--------------/24--22--19-------2-|
---------------------------------------/21----|
----------------------------------------------|
----------------------------------------------|
----------------------------------------------|

   S   S  H.           H          S  S
---------------------------------------|
------------------------------------15-|
--21p-19--L---------------------/16----|
---------------------------------------|
---------------------------------------|
---------------------------------------|

      Q     Q     E    E   Q     H
------------------------------------------|
--15g17----17----17p--15--17b-------------|
------------------------------------------|
------------------------------------------|
------------------------------------------|
------------------------------------------|

  Q      S  S     E   E   S   S  Q     E   Q
--------------------------------------17------|
-----------15-15g17--17--17p-15-17--------17--|b
-------/16------------------------------------|
----------------------------------------------|
----------------------------------------------|
----------------------------------------------|

   S  S  Q.      W                    W.
----------------------------------|-------------------||
--17------------------------------|-------------------||
-----16-16-------L----------------|---L---------------||
----------------------------------|-------------------||
----------------------------------|-------------------||
----------------------------------|-------------------||





Comments


Popular Triumph tabs & chords
All Over Again 1 Chords
Lay It On The Line 1 Chords
Suitcase Blues Chords
Blinding Light Show Tabs
Fingertalkin Tabs
Midsummer's Daydream Tabs
Rock 'n Roll Machine 1 Tabs
Street Fighter Man Tabs
Suitcase Blues Tabs
Lay It On The Line Ukulele


Song lyrics



↑ Back to top | Tablatures and chords are parodies/interpretations of the original songs. You may use it for private study, scholarship, research or language learning purposes only
© 2014 AZChords.com Contact us | Privacy policy | DMCA | Add/correct tabs | Request tabs | Top 50 tabs