» » »

Triumph, Let The Light Tabs (ver.1)

Artists:  A B C D E F G H I J K L M N O P Q R S T U V W X Y Z # 

Let The Light Tabs (ver.1)

Triumph Tabs
 Rating:
4.2/5 (5 votes)
Let The Light lessons Tabs too difficult? Try these video lessons and learn fast
                --3~~~~--3--3--3---------3~~~~--3--3--3-------|--3~~~~--3--3--3-------|
--0~~~~--0--0--0---------0~~~~--0--0--0-------|--1~~~~--1--0--1-------|
--0~~~~--0-----0---------0~~~~--0-----0-------|--0~~~~--0-----0-------|
--0~~~~-----0-----0------0~~~~-----0-----0----|--0~~~~-----------0----|
--2~~~~-----2-----2------2~~~~-----2-----2----|--2~~~~-----2-----2----|
--3~~~~-----3-----3------3~~~~-----3-----3----|--3~~~~-----3-----3----|

G				Gadd11
I've walked beside you through a thousand dreams
G				Gadd11
Sometimes I wonder where the journey leads
	C	D		G	Gadd11
We never seem to get to where we want to go...no...

G				Gadd11
I won't betray the trust you have in me
G				Gadd11
I'll never lose my faith in what can be
C		D			G	Gadd11
Don't ever be afraid to let your feelings show...no...

C			D
Nothing to fear, no place to hide
	G			Eadd11
We got to face the truth inside

G			D		Em
Let the light that shines in your eyes shine on me
	F	C
Let it shine forever
G		D	Em
Let the light shine on me
	F	C		D
We can build a dream together now

G				Gadd11
One in a million are the odds we face
G			Gadd11	G
One in a million that's a chance I'll take
C		D				G	Eadd11
Because when the moment comes I'll take my chance with you

C			D
And when it's more than you can bear
	G			Eadd11
You call my name and I'll be there

G			D		Em
Let the light that shines in your eyes shine on me
	F	C
Let it shine forever
G		D	Em
Let the light shine on me
	F	C		D
We can build a dream together now

E|--7------9-7--------10-9-7------------------------------------|
B|----10-7-----10-8-7--------7h10p7---7-10p7--------------------|
G|-------------------------------------------9-7-6h7-6----------|
D|-----------------------------------------------------7--------|
A|-------------------------------------------------------7------|
E|--------------------------------------------------------------|

C/G			Am
So hard to find your way out of the dark
C		F		G
Let the light shine from your heart

E|-------------------------------------------------|
B|-------------------------------------------------|
G|--14^16-14p11------------------------------------|
D|--------------14-12----12-14^16p12----12-12-12---|
A|--------------------14-------------14------------|
E|-------------------------------------------------|

E|------------------------------------------------------------|
B|-----------------------------------------12-13p12----12-13--|
G|--11h12-11----11-12-11h12p11----11-12-14----------14--------|
D|-----------14----------------14-----------------------------|
A|------------------------------------------------------------|
E|------------------------------------------------------------|

E|-----------------------------------20--|
B|--13/15--15/17--17/19--19/20-20~~~-----|
G|---------------------------------------|
D|---------------------------------------|
A|---------------------------------------|
E|---------------------------------------|

G			D		Em
Let the light that shines in your eyes shine on me
	F	C
Let it shine forever
G		D	Em
Let the light shine on me
	F	C		D
We can build a dream together now

G			D		Em
Let the light that shines in your eyes shine on me
	F	C
Let it shine forever
G		D	Em
Let the light shine on me
	F	C		D
We can build a dream together now

(Fade Out)
            
Submit corrections

comments powered by Disqus
↑ Back to top | Triumph Tabs for Let The Light. Lyrics for acoustic guitar and electric guitar. Tablatures and chords are parodies/interpretations of the original songs. You may use it for private study, scholarship, research or language learning purposes only