>
 >
Glad Hand

Glad Hand Guitar Tabs

Triumph - Glad Hand chords, tabs, tablatures, lyrics

Guitar lessons | Add/correct | Request | Top 50 tabs Artists:  A B C D E F G H I J K L M N O P Q R S T U V W X Y Z 0-9

Glad Hand Guitar Tabs – Triumph

CD, Sheet music, Poster

Do you like Glad Hand? Share with your friends now
Tabs
 glad hand tab by triumph  traduit en tableture par Steve Morin

|----------------------------------|-----------------------|
|--------------------3\2---2-------|------1p0--0-----------|
|--------------0h1---4~~---4----4--|-1/2--0----2-------2---|
|--------------0h2---3~~---3----3--|-1/2---------1-----1---|
|---------------h2-------4---------|-----0----2--------2---|
|-4/12\--------0~~-4---------0h1---|-1/2-----------0p1-----|

|------------------------|---------------------------------------|
|-------3\2------2\------|-------1-----(0)0h1p0h1p0h1p0h1p0--4/5-|
|-0h1---4--------4\----4-|-1/2---0----(2)------------------------|
|-0h1---3--------------3-|-1/2-------2---------------------------|
|--h2--------------------|-----0---0-----------------------------|
|-0~~-4---h10\9-----0h1--|-1/2-----------------------------------|

|---2/4\2----2p0------------0-2------0----0---------|
|---0~~~~--------0------2-----------2-------2-------|
|---2/4\2----------1------1--------0----0-----0-----|
|---------------------------------2-----------------|
|---------------------0-------1--1------------------|
|-0-------4-----------------------------------------|

|----4---5-6-7-9------------------------2--------|
|----5\4--------9----------------1------0--------|
|----4------------11p9---------2--------2-----2--|
|------------------------1---2-----1------1---1--|
|-2----------------------------------2-----------|
|-------------9------------2----------------1----|

|-------2/4\2-----2p0-----------0-2-----0---0-----|
|-0-----0~~~~---------0-----2----------2------2---|
|-0h1---2/4\2-----------1-----1-------0---0-----0-|
|---h2-------------------------------2------------|
|---h2--------------------0-------1-1-------------|
|-0------------4----------------------------------|

|------4-5-6-7-9-12p9----3p2---2-------0----6-7/12-|
|----2/5-----------------4-----4------0------------|
|----0-4-----------------4-----4-----1-------------|
|----------------------------2------2--------------|
|-2--------------------2-----------2---------------|
|--------------9------------------0----------------|

|-----0--5p0-----------5p0--------0---3p0-----5---3----|
|----2-------0---0---------0-----1p0------1---------5--|
|---2--------------6------------0-----------0---5------|
|--2-----------6---------------2-----------------------|
|-0---------------------------0------------------------|
|------------------------------------------------------|

|-0----------2p0------------------------0-----------|
|--0------------0---2p0----------------0-h3--2------|
|---4-------------1-----2-1h2p1---1---1------2--3-4-|
|----4--------------------------4---0---------0-----|
|-----0---------------------------------------------|
|------4--------------------------0---------2---3-4-|

|-----0-5p0-----7-----5p0--------0--12p0------10---8\--|
|----2------0-----0-------0-----1--------0-------8-----|
|---2--------------------------0-----------0-----------|
|--2----------6---------------2------------------------|
|-0--------------------------3-------------------------|
|------------------------------------------------------|

|----4/----10--9--------4h5---8\7----7p8h7p8h7p8h7p8h7p8h7-11/12\--|
|----0-3-------9-----12-4h7---------9---------------------------8\-|
|--------4------10---10-6-6---9\8--8-------------------------------|
|-2/-------9---------9--4-4-7-----9--------------------------------|
|-----------------11-----------------------------------------------|
|------------9-----------------------------------------------------|

|---2/4\2----2p0------------0-2------0----0---------|
|---0~~~~--------0------2-----------2-------2-------|
|---2/4\2----------1------1--------0----0-----0-----|
|---------------------------------2-----------------|
|---------------------0-------1--1------------------|
|-0-------4-----------------------------------------|

|----4---5-6-7-9------------------------2--------|
|----5\4--------9----------------1------0--------|
|----4------------11p9---------2--------2-----2--|
|------------------------1---2-----1------1---1--|
|-2----------------------------------2-----------|
|--------------9-----------2----------------1----|

|-------2/4\2-----2p0-----------0-2-----0---0-----|
|-0-----0~~~~---------0-----2----------2------2---|
|-0h1---2/4\2-----------1-----1-------0---0-----0-|
|---h2-------------------------------2------------|
|---h2--------------------0-------1-1-------------|
|-0------------4----------------------------------|

|------4-5-6-7-9-11-12p9-------9-12--------11/14--11h14p11/12-|
|----2/5----------------9---10----------8---------------------|
|----0-4-------------------------------8----------------------|
|---------------------------10--------9-----------------------|
|-2-----------------------9----------7------------------------|
|--------------9--------------------7-------------------------|

|-12------14-12-----------12\11-----10-12p10----|
|--12-----------12-----13----------10-----------|
|---11------------11--11----------10--------12--|
|----11--------------10----------10-------------|
|------0------------------------10--------------|
|-----------------------------------------------|

|---------10\8------8--10p8--------8\7--6--7/8\7--|
|------10----------8--------8----8\--7------------|
|-----8-----------8-------------7-------0--7/8\7--|
|----8-----------8-------------6------------------|
|---8-----------8-----------------------6--7/8\7--|
|-8-----------------------------------------------|

|---9\8-10/11------12-14\12----------12\----10-12\10-----|
|---9\8-----------12-------12------13\-----10-------10---|
|----------------11----------11---12------9------------9-|
|---------------11---------------10------9---------------|
|-------10/11--0-----------------------------------------|
|-0------------------------------------------------------|

|---------10\--------8-10p8--------8\--|
|------10\---------10------------8\----|
|-----8-----------10------------7------|
|----8-----------10------------6-------|
|---8----------8--------------6--------|
|-8--------------------------6---------|

|--------------------------------------12--|
|-----12p14h12p14h12p14h12p14h12p14h12-----|
|----11------------------------------------|
|---11-------------------------------------|
|--11--------------------------------------|
|-0----------------------------------------|

|-------------------------------------------------|
|-14h12p14h12-------------------------------------|
|-------------13----------------------------------|
|----------------14--13-11------------------------|
|--------------------------14--11h12p11-----------|
|---------------------------------------14--11/12-|

|----------14---|
|---------12----|
|--------11-----|
|-----11--------|
|---11----------|
|-0-------------|





















|----------------------------------|-----------------------|
|--------------------3\2---2-------|------1p0--0-----------|
|--------------0h1---4~~---4----4--|-1/2--0----2-------2---|
|--------------0h2---3~~---3----3--|-1/2---------1-----1---|
|---------------h2-------4---------|-----0----2--------2---|
|-4/12\--------0~~-4---------0h1---|-1/2-----------0p1-----|

|------------------------|---------------------------------------|
|-------3\2------2\------|-------1-----(0)0h1p0h1p0h1p0h1p0--4/5-|
|-0h1---4--------4\----4-|-1/2---0----(2)------------------------|
|-0h1---3--------------3-|-1/2-------2---------------------------|
|--h2--------------------|-----0---0-----------------------------|
|-0~~-4---h10\9-----0h1--|-1/2-----------------------------------|

|---2/4\2----2p0------------0-2------0----0---------|
|---0~~~~--------0------2-----------2-------2-------|
|---2/4\2----------1------1--------0----0-----0-----|
|---------------------------------2-----------------|
|---------------------0-------1--1------------------|
|-0-------4-----------------------------------------|

|----4---5-6-7-9------------------------2--------|
|----5\4--------9----------------1------0--------|
|----4------------11p9---------2--------2-----2--|
|------------------------1---2-----1------1---1--|
|-2----------------------------------2-----------|
|-------------9------------2----------------1----|

|-------2/4\2-----2p0-----------0-2-----0---0-----|
|-0-----0~~~~---------0-----2----------2------2---|
|-0h1---2/4\2-----------1-----1-------0---0-----0-|
|---h2-------------------------------2------------|
|---h2--------------------0-------1-1-------------|
|-0------------4----------------------------------|

|------4-5-6-7-9-12p9----3p2---2-------0----6-7/12-|
|----2/5-----------------4-----4------0------------|
|----0-4-----------------4-----4-----1-------------|
|----------------------------2------2--------------|
|-2--------------------2-----------2---------------|
|--------------9------------------0----------------|

|-----0--5p0-----------5p0--------0---3p0-----5---3----|
|----2-------0---0---------0-----1p0------1---------5--|
|---2--------------6------------0-----------0---5------|
|--2-----------6---------------2-----------------------|
|-0---------------------------0------------------------|
|------------------------------------------------------|

|-0----------2p0------------------------0-----------|
|--0------------0---2p0----------------0-h3--2------|
|---4-------------1-----2-1h2p1---1---1------2--3-4-|
|----4--------------------------4---0---------0-----|
|-----0---------------------------------------------|
|------4--------------------------0---------2---3-4-|

|-----0-5p0-----7-----5p0--------0--12p0------10---8\--|
|----2------0-----0-------0-----1--------0-------8-----|
|---2--------------------------0-----------0-----------|
|--2----------6---------------2------------------------|
|-0--------------------------3-------------------------|
|------------------------------------------------------|

|----4/----10--9--------4h5---8\7----7p8h7p8h7p8h7p8h7p8h7-11/12\--|
|----0-3-------9-----12-4h7---------9---------------------------8\-|
|--------4------10---10-6-6---9\8--8-------------------------------|
|-2/-------9---------9--4-4-7-----9--------------------------------|
|-----------------11-----------------------------------------------|
|------------9-----------------------------------------------------|

|---2/4\2----2p0------------0-2------0----0---------|
|---0~~~~--------0------2-----------2-------2-------|
|---2/4\2----------1------1--------0----0-----0-----|
|---------------------------------2-----------------|
|---------------------0-------1--1------------------|
|-0-------4-----------------------------------------|

|----4---5-6-7-9------------------------2--------|
|----5\4--------9----------------1------0--------|
|----4------------11p9---------2--------2-----2--|
|------------------------1---2-----1------1---1--|
|-2----------------------------------2-----------|
|--------------9-----------2----------------1----|

|-------2/4\2-----2p0-----------0-2-----0---0-----|
|-0-----0~~~~---------0-----2----------2------2---|
|-0h1---2/4\2-----------1-----1-------0---0-----0-|
|---h2-------------------------------2------------|
|---h2--------------------0-------1-1-------------|
|-0------------4----------------------------------|

|------4-5-6-7-9-11-12p9-------9-12--------11/14--11h14p11/12-|
|----2/5----------------9---10----------8---------------------|
|----0-4-------------------------------8----------------------|
|---------------------------10--------9-----------------------|
|-2-----------------------9----------7------------------------|
|--------------9--------------------7-------------------------|

|-12------14-12-----------12\11-----10-12p10----|
|--12-----------12-----13----------10-----------|
|---11------------11--11----------10--------12--|
|----11--------------10----------10-------------|
|------0------------------------10--------------|
|-----------------------------------------------|

|---------10\8------8--10p8--------8\7--6--7/8\7--|
|------10----------8--------8----8\--7------------|
|-----8-----------8-------------7-------0--7/8\7--|
|----8-----------8-------------6------------------|
|---8-----------8-----------------------6--7/8\7--|
|-8-----------------------------------------------|

|---9\8-10/11------12-14\12----------12\----10-12\10-----|
|---9\8-----------12-------12------13\-----10-------10---|
|----------------11----------11---12------9------------9-|
|---------------11---------------10------9---------------|
|-------10/11--0-----------------------------------------|
|-0------------------------------------------------------|

|---------10\--------8-10p8--------8\--|
|------10\---------10------------8\----|
|-----8-----------10------------7------|
|----8-----------10------------6-------|
|---8----------8--------------6--------|
|-8--------------------------6---------|

|--------------------------------------12--|
|-----12p14h12p14h12p14h12p14h12p14h12-----|
|----11------------------------------------|
|---11-------------------------------------|
|--11--------------------------------------|
|-0----------------------------------------|

|-------------------------------------------------|
|-14h12p14h12-------------------------------------|
|-------------13----------------------------------|
|----------------14--13-11------------------------|
|--------------------------14--11h12p11-----------|
|---------------------------------------14--11/12-|

|----------14---|
|---------12----|
|--------11-----|
|-----11--------|
|---11----------|
|-0-------------|





Comments


Popular Triumph tabs & chords
Somebody's Out There Bass Tabs
Spellbound Bass Tabs
Tears In The Rain Bass Tabs
All Over Again Chords
24 Hours A Day Tabs
Fantasy Serenade Tabs
Rock 'n Roll Machine 1 Tabs
Rock N Roll Machine Tabs
Spellbound (Intro) Tabs
Lay It On The Line Ukulele


Song lyrics



↑ Back to top | Tablatures and chords are parodies/interpretations of the original songs. You may use it for private study, scholarship, research or language learning purposes only
© 2014 AZChords.com Contact us | Privacy policy | DMCA | Add/correct tabs | Request tabs | Top 50 tabs