>
 >
Follow Your Heart

Follow Your Heart Guitar Tabs

Triumph - Follow Your Heart chords, tabs, tablatures, lyrics

Guitar lessons | Add/correct | Request | Top 50 tabs Artists:  A B C D E F G H I J K L M N O P Q R S T U V W X Y Z 0-9

Follow Your Heart Guitar Tabs – Triumph

CD, Sheet music, Poster

Do you like Follow Your Heart? Share with your friends now
Tabs
Follow Your Heart- Triumph
Thunder Seven

e------------------------------------------------------------|
b------------------------------------------------------------|
g-------------8--8--9----8--8--8-9------------8--8-9---------|
d-------------9--9--9----9--9--9-9------------9--9-9---------|
a-------------7--7--7----7--7--7-7----<<<0----7--7-7---------|
e--<<<0------------------------------------------------------|
    E E E         B
e---4-4-4-x-x------------------------------------------------|
b---5-5-5-x-x-----4------------------------------------------|
g---4-4-4-x-x-----4------------------------------------------|
d---------x-x-----4------------------------------------------|
a---------x-x--2--2------------------------------------------|
e---------x-x------------------------------------------------|   x2

e-------------------------------------------------------------------------------------|
b-------------------------------------------------------------------------------------|
g--8------9------8--------8-----9--------8--------9-----------------------------------|
d----9------9-------9--------9-----9--------9-----9-----------------------------------|
a------7------7--------7--------------7--------7--7-----------------------------------|
e------------------------------------------------------ basicaly the same thing till--|
   C#m  B C#   A      B      C#  B C#   E    F#
e-------------------------------------------------------------|
b-------------2-3-2--4-5-4--------------9----11---------------|
g---6---4>6---2-2-2--4-4-4-----6--4>6---9----11---------------|
d---6---4>6---2-2-2--4-4-4-----6--4>6---9----11---------------|
a---4---2>4---0-0-0--2-2-2-----4--2>4---7----9----------------|
e------------------------------------------0------------------|
   C# B C#   A       B
e------------------------------------------------------------|
b------------2-3-2---4-5-4h5p4--------------9----------------|
g---6--4>6---2-2-2---4-4-------4---6--4>6---9----------------|
d---6--4>6---2-2-2---4-4-----------6--4>6---9----------------|
a---4--2>4---0-0-0---2-2-----------4--2>4---7----------------|
e------------------------------------------------------------|
Chorus:                       let ring.. Dont wait any longer!!!

e--------------------|     ----------------------------------------|
b--------------------|     ---2------------------------------------|
g--6-6-6-6---2--4-4--|     ---2------------------------------------|
d--6-6-6-6---2--4-4--|     ---2------------------------------------|
a--4-4-4-4---0--2-2--|     ---0------------------------------------|
e--------------------| x4  ----------------------------------------|

Then back to first riff and cont. thats a bout it cept the solo which i dont know sorry. 
tab so be nice if i completley forgot about something....





Comments


Popular Triumph tabs & chords
Magic Power Bass Tabs
Lay It On The Line 1 Chords
Fight The Good Fight Tabs
Glad Hand Tabs
Hold On Tabs
Midsummer's Daydream Tabs
Rock 'n Roll Machine Tabs
Rock N Roll Machine Tabs
Suitcase Blues 1 Tabs
Suitcase Blues Ukulele


Song lyrics



↑ Back to top | Tablatures and chords are parodies/interpretations of the original songs. You may use it for private study, scholarship, research or language learning purposes only
© 2014 AZChords.com Contact us | Privacy policy | DMCA | Add/correct tabs | Request tabs | Top 50 tabs