» » »

Fight The Good Fight Bass tabs (ver.1)

Artists:  A B C D E F G H I J K L M N O P Q R S T U V W X Y Z # 

Fight The Good Fight Bass tabs (ver.1)

Triumph
Rating:
0/5 (0 votes)

Hard to play? Try these video lessons and learn fast.
                -------------------------------------------------------------------------------
-------------------------------------------------------------------------------


Tuning: Standard

No Bass during Synth / Acoustic intro.  Come in with the Drums.


G|-----------------------------------------------------|
D|---------3-------------------------------0-2-3-2-0---|
A|-5-5-5-5---5----3-3-3-5-3---2----------3-----------3-|
E|-------------------------------3-0-3-----------------|
                                            
G|-----------------------------------------------------|
D|---------3---------------------------------5-5-------|
A|-5-5-5-5---5----3-3-3-5-3---2------------------------|
E|------------------------------0-3-0-3----3-----------|

G|-----------------------------------------------------|
D|---------3-------------------------------0-2-3-2-0---|
A|-5-5-5-5---5----3-3-3-5-3---2----------3-----------3-|
E|------------------------------0-3-0-3----------------|
                                            
G|-----------------------------------------------------|
D|---------3---------------------------------5-5-3-----| 
A|-5-5-5-5---5----3-3-3-5-3---2--------------------5-3-| 
E|------------------------------0-3-0-3----3-----------|


  VERSE(A): "The days grow shorter..."
G|------------------------------------------------------------------------------|
D|----------------------------0-2-3-2-0---------------------------------5-5-----|
A|-5---0-0-3--3--0-0-2------3-----------3-5---0-0-3--3--0-0-2---------------0-3-|
E|----------------------3--------------------------------------0-3-0-3----------|

G|------------------------------------------------------------------------------|
D|----------------------------0-2-3-2-0--------------------------------5-3------|
A|-5---0-0-3--3--0-0-2------3-----------3-5---0-0-3--3--0-0-2--------------5-3--|
E|----------------------3---------------------------------------3-0-3-----------|

  VERSE(B): "Don't get discouraged..."
G|-------3--3--3-1-----------5-------5-------------3--------------------5-|
D|----3------------3------5-----5--5---5--------3-----3--------------5----|
A|-1-------------------3-----------------3---1----------1-1--1-1--3-------|
E|------------------------------------------------------------------------|

G|-/7---7-9-7-----------3------3---5--------------------------------------|
D|------------9------3-----3-3---3----------------------------------------|
A|-----------------1------------------------------------------------------|
E|------------------------------------------------------------------------|


  VERSE(A): "The Good Book says..." (Play VERSE(A) part)


  VERSE(B): "Keep up your spirit..."
G|--------3----3---------5--/7--7-9-7-------------3-----------------5-|
D|----3--3--3-3-3------5--------------9-7------3----3-------------5---|
A|-1-------------1--3------------------------1--------1-1--1-1--3-----|
E|--------------------------------------------------------------------|

G|-/7--7-9-7------------3---------------------------------------------|
D|-----------9-------3----3-------------------------------------------|
A|----------------1---------3-1---1-1-3-------------------------------|
E|--------------------------------------------------------------------|


  CHORUS: "Fight the good fight..."
G|-------------------------------------------------------------------------|
D|-------------------------------------------------------------------------|
A|-5-5\--1-1---3-3----------5-5\--1-1---3-3----------5-5---1-1---3-3-----3-|
E|-------------------3--1---------------------3--1--------------------1----|


  VERSE(C)
G|-----------------------------------------------------------------------|
D|----------------------------12-10----12-10-----------------------------|
A|-1--------3-------5--------/------12-------12-10-----------------------|
E|-------------------------------------------------10--------------------|
                       "All your life..."
G|---------------------------------------------14-12---------------------|
D|-------------0-2-0------------------12-10----------15-14-12------------|
A|-------0-1-3------------------------------12---------------------------|
E|-0-1-3-----------------------------------------------------------------|

G|-----------------------------------------------------------------------|
D|-\------------------------------5-7------------------------------------|
A|--5--------------------5------------5------5\-1----------3-------------|
E|--------------3-3-3--5-------------------------------------------------|


  BRIDGE
G|----------------------------------------------------|
D|----------------------------------------------------|
A|--------15\-------15\--------15\--------15\---------|
E|----------------------------------------------------|


  GUITAR SOLO
G|-----------------------------------------------------------------------------|
D|-----------------------------------------------------------------------------|
A|-5-5-5-5-5--3--3--5--0-1-1-1-1-1--1--1--3---5-5-5-5-5--3--3--5--0-1-1-1-1-1--|
E|-----------------------------------------------------------------------------|

G|-----------------------------------------------7-7-7----------------------|
D|---------------5--3-----5-3-----------7--5---7----------------------------|
A|-1--1--3------------5-3-----5-3------------7----------5-5-5-5-5--3--3--5--|
E|----------3--3-------------------5--5-------------------------------------|

G|----------------------------------------------------------------------|
D|----------------------------------------------------------------------|
A|-0-1-1-1-1-1--1--1--3---5-5-5-5-5--3--3--5--0-1-1-1-1-1--1--1--3------|
E|------------------------------------------------------------------3---|

G|----------------------------------------------------------------------------------|
D|-5---3---5-3-----------7-5-----7-5------------------------------------------------|
A|-------5-----5--3----------7-5-----7-5--5-5-5-5-5--3--3--5--0-1-1-1-1-1--1--1--3--|
E|------------------5--5------------------------------------------------------------|

G|----------------------------------------------------------------------------|
D|--------------------------------------------------5--3-5-5-3-------7---7/12-|
A|-5-5-5-5-5--3--3--5--0-1-1-1-1-1---1--1-----------------------5-------------|
E|-----------------------------------------1---1-3-----------------5----------|

G|------------------------------------------------------|
D|---------3--------------------------------0--2--3--5--|
A|-5-5-5-5---5----3-3-3-5-3---2-------1--3--------------|
E|-------------------------------3----------------------|


  VERSE(A): "You think that..."
G|---------------------------------------------------------------------------|
D|-----------------------------0-2-3-2-0-------------------------------------|
A|-5---0-0-3--3---0-2-------3------------3-5---0-0-3--3----------------------|
E|----------------------3----------------------------------3-----------------|

G|---------------------------------------------------------------------------|
D|-----------------------------0-2-3-2-0-----------------------5-------------|
A|-5---0-0-3--3---0-2--------3-----------3-5---0-0-3--3------5---------------|
E|---------------------3--3--------------------------------3-----------------|


  VERSE(B): "Nothin' is easy..."
G|-------3--3---------------5-------5-------------3------3------------5--7--9-7---|
D|----3-------3----------5-----5--5---5--------3-----3-3---3-------5------------9-|
A|-1-------------1----3-----------------3---1----------------1--3-----------------|
E|--------------------------------------------------------------------------------|

G|--------------3------------5------5-----------3------3--------------------------|
D|-8----------3-----------5-----5-5---5------3-----3-3---3------------------------|
A|----8\-1--1------1-1-3------------------1-----------------3---------------------|
E|--------------------------------------------------------------------------------|


  CHORUS: "Fight the good fight..."
G|-------------------------------------------------------------------------|
D|-------------------------------------------------------------------------|
A|-5-5\--1-1---3-3----------5-5\--1-1---3-3----------5-5---1-1---3-3-------|
E|-------------------3--1---------------------3--1--------------------3--1-|

G|-------------------------------------------------------------------------|
D|-------------------------------------------------------------------------|
A|-5-5---1-1---3-3---1--3---5-5---1-1---3-3----------5-5---1-1---3-3-------|
E|--------------------------------------------3--1--------------------3--1-|

G|--------------------------------------------------|
D|--------------------------------------------------|
A|-5-5---1-1---3-3----------5-5---1-1---3-3---1--3--|
E|-------------------3--1---------------------------|


  OUTRO: Repeat through fade out
G|------------------------------------------------------------|
D|------------------------------------------------------------|
A|-5-----3-----6-----------4--------------------5---3---5--7--|
E|-------------------6------------4------3--6-----------------|


| /  slide up
| \  slide down
            
Hard to play? Try these video lessons and learn fast. | Correct




comments powered by Disqus
↑ Back to top | Tablatures and chords are parodies/interpretations of the original songs. You may use it for private study, scholarship, research or language learning purposes only