» » »

Blinding Light Show Tabs (ver.1)

Artists:  A B C D E F G H I J K L M N O P Q R S T U V W X Y Z # 

Blinding Light Show Tabs (ver.1)

Triumph
Rating:
0/5 (0 votes)

Hard to play? Try these video lessons and learn fast.
                (Intro)
artist-triumph
song- blinding light show(moon child)
guitarist-rick emmitt
album-im the begining 1976

this isnt the whole tab because alot of the song is to time consuming and woudl take a
lot longer time then i ahve to tab out. i jsut picked parts of this song otu quickly
and thought id throw em on here so sorry if u were 
expecting the whole tab but whatevers here is pretty much right.

h-hammeron'
p-pulloff
s-slide to
(let ring)
~mild vabrato



intro
|-----------|---------------|-----------------|
|-----------|---------------|-----------------|
|-----4-5---|-4h5p4---4-----|-----------------|
|-7-7-----7-|-------7---5s4-|----4----4-------|X8
|-----------|---------------|-4h5--4h5--(7)---|
|-----------|---------------|-----------------|
                "fill" play fast
|---7---5-----|--------------|
|---8---6-----|--------------|
|-9-9-7-7-(5)-|--------------|
|-9---7---(5)-|--4h5p4s7-----|
|-7---5---(3)-|-5-------7----|
|-------------|--------------|
                   fill
|----5---7-------|--------------|
|----6---8-------|--------------|
|--7-7-9-9--(12)-|15-12p109-----|
|--7---9----(12)-|---------10-12|
|--5---7----(10)-|--------------|
|----------------|--------------|

|-------------------|------------------|
|-------------------|------------------|
|7s9-9--9s11-11-(12)|14-12p10---10-----|
|-------------------|---------12-------|
|-------------------|------------------|
|-------------------|------------------|

|----------------------|
|-9s12-12-12s15-15--17~|
|----------------------|
|----------------------|
|----------------------|
|----------------------|








ill have the rest of the song done ina  while
 enjoy
            
Hard to play? Try these video lessons and learn fast. | Correct




comments powered by Disqus
↑ Back to top | Tablatures and chords are parodies/interpretations of the original songs. You may use it for private study, scholarship, research or language learning purposes only