>
 >
A Minor Prelude

A Minor Prelude Guitar Tabs

Triumph - A Minor Prelude chords, tabs, tablatures, lyrics

Guitar lessons | Add/correct | Request | Top 50 tabs Artists:  A B C D E F G H I J K L M N O P Q R S T U V W X Y Z 0-9

A Minor Prelude Guitar Tabs – Triumph

CD, Sheet music, Poster

Do you like A Minor Prelude? Share with your friends now
Tabs
acoustic guitar. tab by rik emmett         band: triumph

                          a minor prelude            steve,,,, :)


|---------------------0h1p0---0-------|-----------------0---------0h2--|
|--------0--1p0h1--3--------3---3-1-0-|--------0-1-0-1----3-----3------|
|-2p0h2-------------------------------|--2p0h2--------------2----------|
|-----------2-------------------------|-----------------------0--------|
|-0-----------------------------------|--------------------------------|
|---------------------0---------------|--3-----------------------------|

|------------------0------------------|------------------------------|
|---------0-1-0-1-----3-1-0---0-1-0---|------0-3-1h3p1p0-------------|
|---2p0h2-------------------2-------2-|--1-2-------------2-1---------|
|--3----------------------------------|------------------------------|
|-3-------------------0---------------|------------------------------|
|-------------------------------------|--0---------------------------|

|-------1-------0--------12-----|
|-0-1-3--------0--------9-------|
|-------------1--------9--------|
|------------2------------------|
|-----------2-------------------|
|-4--------0-------0------------|

|-------------------------12-----10------------------------------|
|----10-----12-----13-------10-----10-----13-----12-----10-------|
|------9------9------9--------9------9------9------9------9------|
|-------10-----10-----10---------------------10-----10-----10----|
|-0--------------------------------------------------------------|
|----------------------------------------------------------------|

|---------------------13-----12-----12-----12-----12-----12-----12------|
|----9----10----12------10-----10-----10-----9------9------9------9-----|
|-----9-----9-----9-------9------9------9------9-----9------9------9----|
|------9-----9-----9----------------------------------------------------|
|-----------------------------------------------------------------------|
|-0---------------------------------------------------------------------|

|---10-------12------10------8------10------8------7-----8------7-------|
|------12------13------12-----10------12-----10-----8-----10-----8------|
|-0-------0-------0-------0------0-------0------0-----0------0-----0----|
|-----------------------------------------------------------------------|
|-----------------------------------------------------------------------|
|-----------------------------------------------------------------------

|-------------------------------------------------|
|---10------8------7------5------3------3---------|
|-----11------9------7------6------0------0-------|
|-0------0------0------0------0------4------4p0---|
|-------------------------------------------------|
|-------------------------------------------------|

|-------------------0----------------------------|
|---------0----1-----1----3----1----0------------|
|----2-----2----2-----2----2----2----2----2------|
|-----3-----3----3----------3----3----3----3-----|
|-3----3-----------------------------------------|
|------------------------------------------------|

|-------------------0-----------------------------|
|---------0----1-----1----3----1----0-------------|
|----2-----2----2-----2----2----2----2----2-------|
|-----2-----2----2----------2----2----2----2------|
|-0----0------------------------------------------|
|-------------------------------------------------|

|------------------------------------------------------|
|---------------0-----3-----1-----0--------------------|
|----1-----2-----1-----1-----1-----1-----2-----1-------|
|-----2-----2-----2-----2-----2-----2-----2-----2------|
|------2-----2-----------------------------2-----2-----|
|-0----------------------------------------------------|

|----0------0------0-------0------0------0----|------|
|-----0------0------0-------0------0------0---|------|
|-4------5------7------10------9------9-------|------|
|---------------------------------------------|------|
|---------------------------------------------|------|
|---------------------------------------------|--0---|



|





Comments


Popular Triumph tabs & chords
Lay It On The Line 2 Bass Tabs
Suitcase Blues Chords
24 Hours A Day Tabs
City Intro Tabs
Fantasy Serenade 1 Tabs
Fingertalkin Tabs
Little Boy Blues Tabs
Magic Power Tabs
Magic Power 1 Tabs
Midsummer's Daydream Tabs


Song lyrics



↑ Back to top | Tablatures and chords are parodies/interpretations of the original songs. You may use it for private study, scholarship, research or language learning purposes only
© 2014 AZChords.com Contact us | Privacy policy | DMCA | Add/correct tabs | Request tabs | Top 50 tabs