>
 >
24 Hours A Day

24 Hours A Day Guitar Tabs

Triumph - 24 Hours A Day chords, tabs, tablatures, lyrics

Guitar lessons | Add/correct | Request | Top 50 tabs Artists:  A B C D E F G H I J K L M N O P Q R S T U V W X Y Z 0-9

24 Hours A Day Guitar Tabs – Triumph

CD, Sheet music, Poster

Do you like 24 Hours A Day? Share with your friends now
Tabs
-------------------------------------------------------------------------------
-------------------------------------------------------------------------------


Tuning: Drop D

Meant to be played on a 12-String acoustic

[Intro 1]: (0:00 - 0:13)
e|------------|-0---0---|------------|-0---0---|------------|-0---0---|------------|-0---0---|
B|---------0--|---0---0-|---------0--|---0---0-|---------0--|---0---0-|---------0--|---0---0-|
G|----13------|---------|----11------|---------|-----9------|---------|-----8------|---------|
D|-14----14---|---------|-13----13---|---------|-11----11---|---------|--9-----9---|---------|
A|------------|---------|------------|---------|------------|---------|------------|---------|
E|------------|---------|------------|---------|------------|---------|------------|---------|

e|------------|-0---0---|------------|-0---0---|------------|-0---0---|--0~~~------|
B|---------0--|---0---0-|---------0--|---0---0-|----0----0--|---0---0-|--0~~~------|
G|-----7------|---------|-----4------|---------|------------|---------|--4~~~------|
D|--7-----7---|---------|--6-----6---|---------|--4---2-----|---------|--2---------|
A|------------|---------|------------|---------|------------|---------|------------|
E|------------|---------|------------|---------|------------|---------|------------|

[Verse 1]: (0:14 - 1:22)
e|------------|-0---0---|------------|-0---0---|------------|-0---0---|------------|-0---0---|
B|---------0--|---0---0-|---------0--|---0---0-|---------0--|---0---0-|---------0--|---0---0-|
G|----13------|---------|----11------|---------|-----9------|---------|-----8------|---------|
D|-14----14---|---------|-13----13---|---------|-11----11---|---------|--9-----9---|---------|
A|------------|---------|------------|---------|------------|---------|------------|---------|
E|------------|---------|------------|---------|------------|---------|------------|---------|

e|------------|-0---0---|------------|-0---0---|------------|-0---0---|--0~~~------|
B|---------0--|---0---0-|---------0--|---0---0-|----0----0--|---0---0-|--0~~~------|
G|-----7------|---------|-----4------|---------|------------|---------|--4~~~------|x3,
D|--7-----7---|---------|--6-----6---|---------|--4---2-----|---------|--2---------|end 
A|------------|---------|------------|---------|------------|---------|------------|with...
E|------------|---------|------------|---------|------------|---------|------------|

Rock            And             Roll
e|--0~~~--|--0~~~------|--------0~~~|
B|--0~~~--|--3~~~------|------0-----|
G|--4~~~--|--4~~~------|----4~------|
D|--2-----|--5---------|--2---------|
A|--------|------------|------------|
E|--------|------------|------------|

[Main Riff]:

e|------------------------------------------------|
B|------------------------------------------------|
G|--9--9--9---10p9-------------------9\--3--5--7--|Repeat Four Times
D|--9--9--9---------10p9-------------9\--3--5--7--|
A|--7--7--7---------------7-7-7-7-7--7\-----------|
E|--0--0--0---------------....PM....--------------|

[Verse 2]: (1:34 - 1:59)

e|-------------------------------------|
B|-------------------------------------|
G|--9--9--9---10p9---------6-----------|
D|--9--9--9---------10p9---6-----------|
A|--7--7--7----------------4--4-4-4-4--|
E|--0--0--0---....PM....-----...PM...--|

e|-------------------------------------|-----------|
B|--2--2--2----3p2---------4--------5\-|-----------|
G|--2--2--2---------3p2----4--------5\-|--3--5--7--|
D|--0--0--0----------------2--2-2-2-3\-|--3--5--7--|
A|-------------------------------------|-----------|
E|------------....PM....-----...PM...--|-----------|

e|-------------------------------------|------------------|-----------|
B|--7--7--7----8p7---------4--------9\-|--10p9------------|-----------|
G|--7--7--7---------8p7----4--------9\-|-------10p9-------|--3--5--7--|
D|--5--5--5----------------2--2/3/5/7\-|------------10p9--|--3--5--7--|
A|-------------------------------------|------------------|-----------|
E|------------....PM....-----...PM...--|------------------|-----------|

e|-------------------------------------|
B|-------------------------------------|
G|--9--9--9---10p9---------6-----------|
D|--9--9--9---------10p9---6-----------|
A|--7--7--7----------------4--4-4-4-4--|
E|--0--0--0---....PM....-----...PM...--|

e|-------------------------------------|-----------|
B|--2--2--2----3p2---------4--------5\-|-----------|
G|--2--2--2---------3p2----4--------5\-|--3--5--7--|
D|--0--0--0----------------2--2-2-2-3\-|--3--5--7--|
A|-------------------------------------|-----------|
E|------------....PM....-----...PM...--|-----------|

e|-------------------------------------|------------------|-----------|---|
B|--7--7--7----8p7---------4--------9\-|--10p9------------|-----------|---|
G|--7--7--7---------8p7----4--------9\-|-------10p9-------|--3--5--7--|---|
D|--5--5--5----------------2--2/3/5/7\-|------------10p9--|--3--5--7--|---|
A|-------------------------------------|------------------|-----------|---|
E|------------....PM....-----...PM...--|------------------|-----------|-0-|

[Pre-Chorus 1]: (2:00 - 2:12)

e|-------------------------------------|------------------|-----------|---|
B|-------------------------------------|--10p9------------|-----------|---|
G|-7-7-7-7-7-7-7-7---5-5--4-4-4---2----|-------10p9-------|--3--5--7--|---|
D|-7-7-7-7-7-7-7-7---5-5--4-4-4---2~~~-|------------10p9--|--3--5--7--|---|
A|-5-5-5-5-5-5-5-5---3-3--2-2-2---0----|------------------|-----------|---|
E|-------------------------------------|------------------|-----------|-0-|

e|-------------------------------------|------------------|--------------------------|
B|-------------------------------------|--10p9------------|--------------------------|
G|-7-7-7-7-7-7-7-7---5-5--4-4-4//9-----|-------10p9-------|--------------------------|
D|-7-7-7-7-7-7-7-7---5-5--4-4-4//9~~~--|------------10p9--|--------------------------|
A|-5-5-5-5-5-5-5-5---3-3--2-2-2//7-----|------------------|--------------------------|
E|-------------------------------------|------------------|-x-x-x-x-x-x-x-x-x-x-x-x--|

[Chorus 1]: (2:13 - 2:27)

e|------------------------------------------|-------------------5--5---7--7---9--9--9--|
B|------------------------------------------|-------------------3--3---5--5---7--7--7--|
G|-----------9--9----7--9--10--10--9--7--9--|-----------9--9----2--2---4--4---6--6--9--|
D|-----------9--9----7--9--10--10--9--7--9--|-----------9--9---------------------------|
A|-----------7--7---------------------------|-----------7--7---------------------------|
E|--0-0-0-0---------------------------------|--0-0-0-0---------------------------------|

e|------------------------------------------|-------------------5--5---4--4---8--9--9--|
B|------------------------------------------|-------------------2--2---5--5---7--7--7--|
G|-----------9--9----7--9--10--10--9--7--9--|-----------9--9----3--3---7--4---5--6--9--|
D|-----------9--9----7--9--10--10--9--7--9--|-----------9--9---------------------------|
A|-----------7--7---------------------------|-----------7--7---------------------------|
E|--0-0-0-0---------------------------------|--0-0-0-0---------------------------------|

[Lead Break 1]: (2:27 - 2:35)

e|----------------------------------------------------|
B|-17bu19-17-14-15-12---------------------------------|
G|----------------------------9-11-12-11-12-11-9------|
D|--------------------9-11-12--------------------9-12-|
A|----------------------------------------------------|
E|----------------------------------------------------|

[Verse 2]: (2:36 - 3:01)

e|-------------------------------------|
B|-------------------------------------|
G|--9--9--9---10p9---------6-----------|
D|--9--9--9---------10p9---6-----------|
A|--7--7--7----------------4--4-4-4-4--|
E|--0--0--0---....PM....-----...PM...--|

e|-------------------------------------|-----------|
B|--2--2--2----3p2---------4--------5\-|-----------|
G|--2--2--2---------3p2----4--------5\-|--3--5--7--|
D|--0--0--0----------------2--2-2-2-3\-|--3--5--7--|
A|-------------------------------------|-----------|
E|------------....PM....-----...PM...--|-----------|

e|-------------------------------------|------------------|-----------|
B|--7--7--7----8p7---------4--------9\-|--10p9------------|-----------|
G|--7--7--7---------8p7----4--------9\-|-------10p9-------|--3--5--7--|
D|--5--5--5----------------2--2/3/5/7\-|------------10p9--|--3--5--7--|
A|-------------------------------------|------------------|-----------|
E|------------....PM....-----...PM...--|------------------|-----------|

e|-------------------------------------|
B|-------------------------------------|
G|--9--9--9---10p9---------6-----------|
D|--9--9--9---------10p9---6-----------|
A|--7--7--7----------------4--4-4-4-4--|
E|--0--0--0---....PM....-----...PM...--|

e|-------------------------------------|-----------|
B|--2--2--2----3p2---------4--------5\-|-----------|
G|--2--2--2---------3p2----4--------5\-|--3--5--7--|
D|--0--0--0----------------2--2-2-2-3\-|--3--5--7--|
A|-------------------------------------|-----------|
E|------------....PM....-----...PM...--|-----------|

e|-------------------------------------|------------------|-----------|---|
B|--7--7--7----8p7---------4--------9\-|--10p9------------|-----------|---|
G|--7--7--7---------8p7----4--------9\-|-------10p9-------|--3--5--7--|---|
D|--5--5--5----------------2--2/3/5/7\-|------------10p9--|--3--5--7--|---|
A|-------------------------------------|------------------|-----------|---|
E|------------....PM....-----...PM...--|------------------|-----------|-0-|

[Pre-Chorus 2]: (3:02 - 3:14)

e|-------------------------------------|------------------|-----------|---|
B|-------------------------------------|--10p9------------|-----------|---|
G|-7-7-7-7-7-7-7-7---5-5--4-4-4---2----|-------10p9-------|--3--5--7--|---|
D|-7-7-7-7-7-7-7-7---5-5--4-4-4---2~~~-|------------10p9--|--3--5--7--|---|
A|-5-5-5-5-5-5-5-5---3-3--2-2-2---0----|------------------|-----------|---|
E|-------------------------------------|------------------|-----------|-0-|

e|-------------------------------------|------------------|--------------------------|
B|-------------------------------------|--10p9------------|--------------------------|
G|-7-7-7-7-7-7-7-7---5-5--4-4-4//9-----|-------10p9-------|--------------------------|
D|-7-7-7-7-7-7-7-7---5-5--4-4-4//9~~~--|------------10p9--|--------------------------|
A|-5-5-5-5-5-5-5-5---3-3--2-2-2//7-----|------------------|--------------------------|
E|-------------------------------------|------------------|-x-x-x-x-x-x-x-x-x-x-x-x--|

[Chorus 2]: (3:15 - 3:29)

e|------------------------------------------|-------------------5--5---7--7---9--9--9--|
B|------------------------------------------|-------------------3--3---5--5---7--7--7--|
G|-----------9--9----7--9--10--10--9--7--9--|-----------9--9----2--2---4--4---6--6--9--|
D|-----------9--9----7--9--10--10--9--7--9--|-----------9--9---------------------------|
A|-----------7--7---------------------------|-----------7--7---------------------------|
E|--0-0-0-0---------------------------------|--0-0-0-0---------------------------------|

e|------------------------------------------|-------------------5--5---4--4---8--9--9--|
B|------------------------------------------|-------------------2--2---5--5---7--7--7--|
G|-----------9--9----7--9--10--10--9--7--9--|-----------9--9----3--3---7--4---5--6--9--|
D|-----------9--9----7--9--10--10--9--7--9--|-----------9--9---------------------------|
A|-----------7--7---------------------------|-----------7--7---------------------------|
E|--0-0-0-0---------------------------------|--0-0-0-0---------------------------------|

[Lead Break 2]: (3:29 - 3:43)

e|----------------------------------------------------|
B|-17bu19-17-14-15-12---------------------------------|
G|----------------------------9-11-12-11-12-11-9------|
D|--------------------9-11-12--------------------9-12-|
A|----------------------------------------------------|
E|----------------------------------------------------|

e|--------------------------------------------------------|
B|-19bu21-19-16-17-14----------13-15-16-15-16-15-14-------|
G|--------------------14-16-17---------------------14-17--|
D|--------------------------------------------------------|
A|--------------------------------------------------------|
E|--------------------------------------------------------|

[Chorus 3]: (3:30 - 4:28)

e|------------------------------------------|-------------------5--5---7--7---9--9--9--|
B|------------------------------------------|-------------------3--3---5--5---7--7--7--|
G|-----------9--9----7--9--10--10--9--7--9--|-----------9--9----2--2---4--4---6--6--9--|
D|-----------9--9----7--9--10--10--9--7--9--|-----------9--9---------------------------|
A|-----------7--7---------------------------|-----------7--7---------------------------|
E|--0-0-0-0---------------------------------|--0-0-0-0---------------------------------|

e|------------------------------------------|-------------------5--5---4--4---8--9--9--|
B|------------------------------------------|-------------------2--2---5--5---7--7--7--|
G|-----------9--9----7--9--10--10--9--7--9--|-----------9--9----3--3---7--4---5--6--9--|
D|-----------9--9----7--9--10--10--9--7--9--|-----------9--9---------------------------|
A|-----------7--7---------------------------|-----------7--7---------------------------|
E|--0-0-0-0---------------------------------|--0-0-0-0---------------------------------|

Repeat Until Fade Out

===============================================================================





Comments


Popular Triumph tabs & chords
Lay It On The Line 2 Bass Tabs
All Over Again Chords
Lay It On The Line 1 Chords
Blind Light Show Tabs
Lay It On The Line Tabs
Rock 'n Roll Machine Tabs
Rock N Roll Machine Tabs
All Over Again Ukulele
Hold On Ukulele
Suitcase Blues Ukulele


Song lyrics



↑ Back to top | Tablatures and chords are parodies/interpretations of the original songs. You may use it for private study, scholarship, research or language learning purposes only
© 2014 AZChords.com Contact us | Privacy policy | DMCA | Add/correct tabs | Request tabs | Top 50 tabs