>
 >
Tomorrow

Tomorrow Guitar Tabs

Triple Helix - Tomorrow chords, tabs, tablatures, lyrics

Guitar lessons | Add/correct | Request | Top 50 tabs Artists:  A B C D E F G H I J K L M N O P Q R S T U V W X Y Z 0-9

Tomorrow Guitar Tabs – Triple Helix

CD, Sheet music, Poster

Do you like Tomorrow? Share with your friends now
Tabs
Tuning: Drop d down a half steps
effects: distortion and phaser

intro:clean with phaser
e:-------------------------------------------------------------------------------
b:-3-----------------------------------------------------------------------------
g:-2-----------------------------------------------------------------------------
d:-0------3------5------x4-------------------------------------------------------
a:-0------3------5---------------------------------------------------------------
e:-0------3------5---------------------------------------------------------------

verse 1:clean with phaser
e:-------------------------------------------------------------------------------
b:-------------------3-----------------------------------------------------------
g:---------------2-------2----------------------3--------------------5-----------
d:------------0-------------0----------------3----3---------------5-----5-----x4-
a:--------0---------------------0----------3---------3---------5-----------5-----
e:-0--0------------------------------3--3--------------3-5--5--------------------

verse 2: phaser
e:--0-----2-----0----------------------------------------------------------------
b:--3-----3-----5----------------------------------------------------------------
g:--2-----2-----4-------------------------------x4-------------------------------
d:--0-----3-----5----------------------------------------------------------------
a:--0-----3-----5----------------------------------------------------------------
E:--0-----3-----5----------------------------------------------------------------
 you strum it more than that but no point in writing it out

chorus part 1:distortion
e:-------------------------------------------------------------------------------
b:----------------------------------3-3------------------------------------------
g:----------------------------------2-2------------------------------------------
d:-0000-------0000-------0000-------0-0----3--1-s-(7)--7-------------------------
a:-0000---3---0000---5---0000---3---0-0----3--1-s-(7)--7-------------------------
e:-0000---3---0000---5---0000---3---0-0----3--1-s-(7)--7-------------------------

Chorus part 2:Distortion
e:-------------------------------------------------------------------------------
b:-------------------------------------------------------------------------------
g:-------------------------------------------------------------------------------
D:-0-0-----------------3------------------0-h-3---0-0-0-0-0-0--------------------
a:-0-0--3--------------3-s-5--------------0-h-3---0-0-0-0-0-0---3-h-5------------
E:-0-0--3-(3)(3)(3)(3)-3-s-5-(5)(5)(5)(5)-0-h-3---0-0-0-0-0-0---3-h-5------------

bridge:distortion
e:-------------------------------------------------------------------------------
b:-------------------------------------------------------------------------------
g:-------------------------------------------------------------------------------
d:--0-0--3--0-0--5--0-0--5-p-3---------------------------------------------------
a:--0-0--3--0-0--5--0-0--5-p-3--5-p-3-s-7----------------------------------------
e:--0-0-----0-0-----0-0---------5-p-3-s-7----------------------------------------





Comments


Popular Triple Helix tabs & chords
Blank Memory Tabs
Home Tabs
Not Here Tabs
Outdone Tabs
Silence Inside Tabs
Under Myself Tabs


Song lyrics



↑ Back to top | Tablatures and chords are parodies/interpretations of the original songs. You may use it for private study, scholarship, research or language learning purposes only
© 2014 AZChords.com Contact us | Privacy policy | DMCA | Add/correct tabs | Request tabs | Top 50 tabs