» » »

Triple Helix, Outdone Tabs (ver.1)

Artists:  A B C D E F G H I J K L M N O P Q R S T U V W X Y Z # 

Outdone Tabs (ver.1)

Triple Helix Tabs
 Rating:
4/5 (4 votes)
Outdone lessons Tabs too difficult? Try these video lessons and learn fast
1
                Tuning: Drop D down a 1/2 step
effects: Flanger and Distortion
P:Pulloff
H:Hammer on
s:slide
~: Let note fade

Intro1:Clean with Flanger
--------------------------------------------------------------------
--------------------------------------------------------------------
---------6---------6------------------------------------------------
-44-5-4-----4-5-4-----4--7p4-5p4--x4 last time with distortion------
--------------------------------------------------------------------
--------------------------------------------------------------------

Intro2: Distortion
--------------------------------------------------------------------
--------------------------------------------------------------------
--------------------------------------------------------------------
-------------------------------------x4-----------------------------
----------5---------5----7p4--5p4-----------------------------------
--44-5-4-----44-5-4---4--7p4--5p4-----------------------------------

Verse: Distortion
--------------------------------------------------------------------
--------------------------------------------------------------------
-----------------------------------------------------2-2-2----------
-------4-4-4------------------4-4-4------------------0-0-0----------
-4-xx--4-4-4--7p4--5p4---4-xx-4-4-4--7p4--5p4---0-xx-0-0-0--4p0--2p0
-4-xx--4-4-4--7p4--5p4---4-xx-4-4-4--7p4--5p4---0-xx-0-0-0--4p0--2p0

--------------------------------------------------------------------
--------------------------------------------------------------------
--------2-2-2-------------------------------------------------------
--------0-0-0-----------------x2------------------------------------
---0-xx-0-0-0--4p0--2p0---------------------------------------------
---0-xx-0-0-0--4p0--2p0---------------------------------------------

Chorus: Distortion
--------------------------------------------------------------------
--------------------------------------------------------------------
--------------------------------------------------------------------
-----------4--4-4-4--------------5--5-5-5-------------4-4-4-4-------
-2-2-2-2---4--4-4-4----0-0-0-0---5--5-5-5----2-2-2-2--4-4-4-4--5s7--
-2-2-2-2---4-----------0-0-0-0---5-----------2-2-2-2--4--------5s7~-

Bridge: Distortion w/ Flanger
--------------------------------------|--------------------|----------
--------------------------------------|--------------------|----------
---------6----------6-----9s6--7s6----|--2--------2-2-2----|----------
-44-5-4-----44-5-4-----4--7s4--5s4-x2-|--0-xx--0--0-0-0--x2|---x4-----
--------------------------------------|--0-xx--0--0-0-0----|----------
--------------------------------------|--------0-----------|----------

Outro: Distortion
----------------------------------------------------------------------
----------------------------------------------------------------------
----------------------------------------------------------------------
---------------------------0-0----------------------------------------
--4-4-----------4-4--------0-0----------------------------------------
--4-4-(4)(4)(4)-4-4-(4)(4)-0-0----------------------------------------
            
Submit corrections

comments powered by Disqus
↑ Back to top | Triple Helix Tabs for Outdone. Lyrics for acoustic guitar and electric guitar. 1 Tablatures and chords are parodies/interpretations of the original songs. You may use it for private study, scholarship, research or language learning purposes only