>
 >
Home

Home Guitar Tabs

Triple Helix - Home chords, tabs, tablatures, lyrics

Guitar lessons | Add/correct | Request | Top 50 tabs Artists:  A B C D E F G H I J K L M N O P Q R S T U V W X Y Z 0-9

Home Guitar Tabs – Triple Helix

CD, Sheet music, Poster

Do you like Home? Share with your friends now
Tabs
Band:Triple Helix
Tuning:Drop D down a half step
Effects: Flanger, Wah Wah

Intro:(slowly close Wah Wah the first 2 times through)
----------------------------------------------------------
----------------------------------------------------------
----------------------------------------------------------
---------------3-5----------------6-5----------------3-5--
-5605-x-5605-x-3-5--5605-x-5605-x-6-5--5605-x-5605-x-3-5--
-0000-x-0000-x-3-5--0000-x-0000-x-6-5--0000-x-0000-x-3-5--

----------------------------------------------------------
----------------------------------------------------------
----------------------------------------------------------
----------------------------------------------------------
-5605-x-5605-x-12-12-13-12--13-13-------------------------
-0000-x-0000-x-0--0--0--0---12-12-------------------------

Verse:(Clean with Flanger)
----------------------------------------------------------
----------------------------------------------------------
----------------------------------------------------------
-----7-------8-------7-------5---------7-------8-------7--
---5---5---5---5---5---5---3---3-----5---5---5---5---5---5
-0-------0-------5-------3---------0-------0-------5------

-----------------------------------------------------------
-----------------------------------------------------------
-5-5-5-----------------------------------------------------
-5-5-5-------7-------8-------7-------3-------7-------8-----
-3-3-3-----5---5---5---5---5---5---3---3---5---5---5---5---
-3-3-3---0-------0-------5-------3-------0-------0---------

-----------------------------------------------------------
-----------------------------------------------------------
----------5-5-5--------------------------------------------
-----5----5-5-5--------------------------------------------
---5---5--3-3-3--------------------------------------------
-5--------3-3-3--------------------------------------------

Chorus:(Distortion)
-----------------------------------------------------------
-----------------------------------------------------------
-------5-7-------------------------------------------------
---------------------------------11-11p8-------------------
-0-0-0-3-5-x-x-333--3-3--5-5-5---8--8--8--7-7-7---x4-------
-0-0-0-----x-x-333--3-3--5-5-5---8--8--8--7-7-7------------

bridge:(distortion)
-----------------------------------------------------------
-----------------------------------------------------------
-----------------------------------------------------------
-----------------------------------------------------------
-5-5--5-5---7---8-8--8-8---3----x4-------------------------
-5-5--5-5---7---8-8--8-8---3-------------------------------

Solo:
-----------------------------------------------------------
-----------------------------------------------------------
------------------------------------------5-5-5-s-7-5p3----
----------------------7--7-7-7h8p7--5h6p5------------------
-5555-6p5-5--8p7-7-7---------------------------------------
-----------------------------------------------------------

-----------------------------------------------6p5-6p5-8---
-----------3333-55-7777-8/-7777-5h6p5-333h5p3--------------
-3333-5p3--------------------------------------------------
-----------------------------------------------------------
-----------------------------------------------------------
-----------------------------------------------------------

-8p6p5--8p5-8p5--10--10-10-10--12-12--13/-13-12-10---------
-----------------------------------------------------------
-----------------------------------------------------------
-----------------------------------------------------------
-----------------------------------------------------------
-----------------------------------------------------------

-13p12p10--13p12p10--13p12p10--13p12p10-s-17/--------------
-----------------------------------------------------------
-----------------------------------------------------------
-----------------------------------------------------------
-----------------------------------------------------------
-----------------------------------------------------------





Comments


Popular Triple Helix tabs & chords
Blank Memory Tabs
Not Here Tabs
Outdone Tabs
Silence Inside Tabs
Tomorrow Tabs
Under Myself Tabs


Song lyrics



↑ Back to top | Tablatures and chords are parodies/interpretations of the original songs. You may use it for private study, scholarship, research or language learning purposes only
© 2014 AZChords.com Contact us | Privacy policy | DMCA | Add/correct tabs | Request tabs | Top 50 tabs