» » »

Blank Memory Tabs (ver.1)

Artists:  A B C D E F G H I J K L M N O P Q R S T U V W X Y Z # 

Blank Memory Tabs (ver.1)

Triple Helix
Rating:
0/5 (0 votes)

Hard to play? Try these video lessons and learn fast.
                Band: Triple Helix
Tuning: Drop D down a half step
Effects: Phaser

Verse: (Phaser)
--------------------------------------------------------------
--------------------------------------------------------------
--------------11-111111-11---7--7-7-7--7--11-111111-11--------
-9--9-9-9--9---9--9-9-9--9---9--9-9-9--9---9--9-9-9--9--------
-7--7-7-7--7---7--7-7-7--7---7--7-7-7--7---7--7-7-7--7--------
--------------------------------------------------------------

--------------------------------------------------------------
--------------------------------------------------------------
---------------9--9-9-9--9-----------------9--9-9-9--9--------
-7--7-7-7--7---7--7-7-7--7---7--7-7-7--7---7--7-7-7--7--------
-5--5-5-5--5---5--5-5-5--5---5--5-5-5--5---5--5-5-5--5--------
-5--5-5-5--5---5--5-5-5--5---0--0-0-0--0---0--0-0-0--0--------

Interlude: (Distortion)
--------------------------------------------------------------
--------------------------------------------------------------
--------------------------------------------------------------
-----------4--4-4-4--4-------------4--4-4-4--4----------------
-2---2-2---2--2-2-2--2---2---2-2---2--2-2-2--2---0--0-0-------
-2---2-2---2--2-2-2--2---2---2-2---2--2-2-2--2---0--0-0-------

--------------------------------------------------------------
--------------------------------------------------------------
--------------------------------------------------------------
14-141414-14------------14--14-14-14--14----------------------
12-121212-12---0--0-0---12--12-12-12--12----------------------
-0--0-0-0--0---0--0-0---12--12-12-12--12----------------------

Chorus: (Distortion)
--------------------------------------------------------------
--------------------------------------------------------------
----------------------------------------------------------9---
-2--2-2-2--2---0--0-0-0--0---12--12-12-12--12---9--9-9-9--9---
-2--2-2-2--2---0--0-0-0--0---10--10-10-10--10---7--7-7-7--7---
-2--2-2-2--2---0--0-0-0--0---10--10-10-10--10---7--7-7-7--7---

Bridge: (Distortion)
--------------------------------------------------------------
--------------------------------------------------------------
-------------------------------------------------------------2
-12--12-12-12--12---9--9-9-9--9---9--9-9-9--9---7--7-7-7--7--0
-10--10-10-10--10---7--7-7-7--7---9--9-9-9--9---5--5-5-5--5--0
-10--10-10-10--10---7--7-7-7--7---9--9-9-9--9---5--5-5-5--5--0
            
Hard to play? Try these video lessons and learn fast. | Correct




comments powered by Disqus
↑ Back to top | Tablatures and chords are parodies/interpretations of the original songs. You may use it for private study, scholarship, research or language learning purposes only