>
 >
Fools Paradise

Fools Paradise Guitar Tabs

Trigun - Fools Paradise chords, tabs, tablatures, lyrics

Guitar lessons | Add/correct | Request | Top 50 tabs Artists:  A B C D E F G H I J K L M N O P Q R S T U V W X Y Z 0-9

Fools Paradise Guitar Tabs – Trigun

CD, Sheet music, Poster

Do you like Fools Paradise? Share with your friends now
Tabs
Standard tuning 
E A D G B e

~-vibrato
b-bend
p-pull off
h-hammer on
p.m.-palm mute
r-release hand preventing a ring out
d- dub-out
/-Slide


ACOUSTIC
GUITAR 1 (LEAD) 
GUITAR 2 (RHYTHM)

(GUITAR 1 & 2)
0:00
e|-0-0-0-0-0-0--0-0-0-0-0-0--0-0-0-0-0-0--0-0-0-0-0-0---| 
B|-3-3-3-3-3-3--3-3-3-3-3-3--3-3-3-3-3-3--3-3-3-3-3-3---| 
G|-2-2-2-2-2-2--2-2-2-2-2-2--2-2-2-2-2-2--2-2-2-2-2-2---|
D|-0-0-0-0-0-0--0-0-0-0-0-0--0-0-0-0-0-0--0-0-0-0-0-0---|
A|------------------------------------------------------|
E|------------------------------------------------------|

e|-2-2-2-2-2-2--2-2-2-2-2-2--2-2-2-2-2-2--2-2-2-2-2-2---| 
B|-3-2-3-3-3-3--3-3-3-3-3-3--3-3-3-3-3-3--3-3-3-3-3-3---| 
G|-2-2-2-2-2-2--2-2-2-2-2-2--2-2-2-2-2-2--2-2-2-2-2-2---|(x2, incl. Bar 
D|-0-0-0-0-0-0--0-0-0-0-0-0--0-0-0-0-0-0--0-0-0-0-0-0---| above)
A|------------------------------------------------------|
E|------------------------------------------------------|

0:14
(GUITAR 1 & 2)
e|-2--2-2-2-2--2-2-2-2-2-2--0--0-0-0-0-0--0-0-0-0-0-0---| 
B|-3--3-3-3-3--3-3-3-3-3-3--3--3-3-3-3-3--3-3-3-3-3-3---| 
G|-2--2-2-2-2--2-2-2-2-2-2--2--2-2-2-2-2--2-2-2-2-2-2---|
D|-0--0-0-0-0--0-0-0-0-0-0--0--0-0-0-0-0--0-0-0-0-0-0---|
A|------------------------------------------------------|
E|------------------------------------------------------|

e|-0--0-0-0-0--0-0-0-0-0-0--0--0-0-0-0-0--0-0-0-0-0-0---| 
B|-3--3-3-3-3--3-3-3-3-3-3--3--3-3-3-3-3--3-3-3-3-3-3---| 
G|-0--0-0-0-0--0-0-0-0-0-0--2--2-2-2-2-2--2-2-2-2-2-2---|
D|-0--0-0-0-0--0-0-0-0-0-0--0--0-0-0-0-0--0-0-0-0-0-0---|
A|------------------------------------------------------|
E|------------------------------------------------------|

e|-2--2-2-2-2--2-2-2-2-2-2--0--0-0-0-0-0--0-0-0-0-0-0---| 
B|-3--3-3-3-3--3-3-3-3-3-3--3--3-3-3-3-3--3-3-3-3-3-3---| 
G|-2--2-2-2-2--2-2-2-2-2-2--2--2-2-2-2-2--2-2-2-2-2-2---|
D|-0--0-0-0-0--0-0-0-0-0-0--0--0-0-0-0-0--0-0-0-0-0-0---|
A|------------------------------------------------------|
E|------------------------------------------------------|

e|-0--0-0-0-0--0-0-0-0-0-0--0-0-0-0-0-0--0--0-----------| 
B|-3--3-3-3-3--3-3-3-3-3-3--3-3-3-3-3-3--3--3-----------| 
G|-0--0-0-0-0--0-0-0-0-0-0--0-0-0-0-0-0--0--0-----------|
D|-0--0-0-0-0--0-0-0-0-0-0--0-0-0-0-0-0--0--0-----------|
A|------------------------------------------------------|
E|------------------------------------------------------|

0:35
GUITAR 1
e|-5/10-10--10-8-5-8-5---8-5---5-----| 
B|---------------------------8-------| 
G|-------------------------------7---|
D|-----------------------------------|
A|-----------------------------------|
E|-----------------------------------|

e|-----------------------------------------------| 
B|-----------------------------------------------| 
G|-7-5--------------------------------7-9----7---|
D|-----7-9-7-9--9-9-7-9-10---10-10-10-----10-----|
A|-----------------------------------------------|
E|-----------------------------------------------|

0:46
e|----10-----------------| 
B|-10----10-10--8--------| 
G|----------------10-7---|
D|-----------------------|
A|-----------------------|
E|-----------------------|

e|-----------------------------------------------------| 
B|---------5-7-8--7-5--------5-7-8--7-5----------5-6---| 
G|-5-7-8-9------------7-5--7------------7-5--5-7-------|
D|-----------------------------------------------------|
A|-----------------------------------------------------|
E|-----------------------------------------------------|

e|-------------------------------------------| 
B|-5-6--6p5-3--6p5-4--7~--7\3-3--3-5-6-6/7---| 
G|-------------------------------------------|
D|-------------------------------------------|
A|-------------------------------------------|
E|-------------------------------------------|

e|---------------------------------------------------------------3---| 
B|-7/3--3-5-6-6/7--7-8-7-5----3-3-5p3---4\1-0-4\1-0--3-----3-4-6-----| 
G|--------------------------5---------5----------------3-5-----------|
D|-------------------------------------------------------------------|
A|-------------------------------------------------------------------|
E|-------------------------------------------------------------------|

1:10
e|-6--6--6-9-10-9------------6--6--6-9-10/11-11-12----11------| 
B|----------------7---7-8-9------------------------13----12---|
G|------------------------------------------------------------|
D|------------------------------------------------------------|
A|------------------------------------------------------------|
E|------------------------------------------------------------|

e|-6--6--6-9-10-9---------------------------------------------| 
B|----------------7--5-3--------------------------------------|
G|-----------------------6\-----------------------------------|
D|------------------------------------------------------------|
A|------------------------------------------------------------|
E|------------------------------------------------------------|

1:21
e|------------------------------------------------------------| 
B|------------------------------------------------------------| 
G|-0--------------------0-----------------5-5-----------------|
D|---7\-------------------7\------------------7\--------------|
A|------------------------------------------------------------|
E|------------------------------------------------------------|

e|-----------------------------9------------------------------| 
B|-------------------------5-5--------------------------------| 
G|-5--5--5----5------------------------9-9-11-9---------------|
D|-7--7----7----7-------------------------------12-11\7-------|
A|------------------------------------------------------------|
E|------------------------------------------------------------|

2:21
(GUITAR 1 & 2)
e|-0-0-0-0-0-0--0-0-0-0-0-0--0-0-0-0-0-0--0-0-0-0-0-0---| 
B|-3-3-3-3-3-3--3-3-3-3-3-3--3-3-3-3-3-3--3-3-3-3-3-3---| 
G|-2-2-2-2-2-2--2-2-2-2-2-2--2-2-2-2-2-2--2-2-2-2-2-2---|
D|-0-0-0-0-0-0--0-0-0-0-0-0--0-0-0-0-0-0--0-0-0-0-0-0---|
A|------------------------------------------------------|
E|------------------------------------------------------|

e|-2-2-2-2-2-2--2-2-2-2-2-2--2-2-2-2-2-2--2-2-2-2-2-2---| 
B|-3-2-3-3-3-3--3-3-3-3-3-3--3-3-3-3-3-3--3-3-3-3-3-3---| 
G|-2-2-2-2-2-2--2-2-2-2-2-2--2-2-2-2-2-2--2-2-2-2-2-2---|(x2, incl. Bar 
D|-0-0-0-0-0-0--0-0-0-0-0-0--0-0-0-0-0-0--0-0-0-0-0-0---| above)
A|------------------------------------------------------|
E|------------------------------------------------------|

(GUITAR 1 & 2)
e|-2--2-2-2-2--2-2-2-2-2-2--0--0-0-0-0-0--0-0-0-0-0-0---| 
B|-3--3-3-3-3--3-3-3-3-3-3--3--3-3-3-3-3--3-3-3-3-3-3---| 
G|-2--2-2-2-2--2-2-2-2-2-2--2--2-2-2-2-2--2-2-2-2-2-2---|
D|-0--0-0-0-0--0-0-0-0-0-0--0--0-0-0-0-0--0-0-0-0-0-0---|
A|------------------------------------------------------|
E|------------------------------------------------------|

e|-0--0-0-0-0--0-0-0-0-0-0--0--0-0-0-0-0--0-0-0-0-0-0---| 
B|-3--3-3-3-3--3-3-3-3-3-3--3--3-3-3-3-3--3-3-3-3-3-3---| 
G|-0--0-0-0-0--0-0-0-0-0-0--2--2-2-2-2-2--2-2-2-2-2-2---|
D|-0--0-0-0-0--0-0-0-0-0-0--0--0-0-0-0-0--0-0-0-0-0-0---|
A|------------------------------------------------------|
E|------------------------------------------------------|

e|-2--2-2-2-2--2-2-2-2-2-2--0--0-0-0-0-0--0-0-0-0-0-0---| 
B|-3--3-3-3-3--3-3-3-3-3-3--3--3-3-3-3-3--3-3-3-3-3-3---| 
G|-2--2-2-2-2--2-2-2-2-2-2--2--2-2-2-2-2--2-2-2-2-2-2---|
D|-0--0-0-0-0--0-0-0-0-0-0--0--0-0-0-0-0--0-0-0-0-0-0---|
A|------------------------------------------------------|
E|------------------------------------------------------|

e|-0--0-0-0-0--0-0-0-0-0-0--0-0-0-0-0-0--0--0-----------| 
B|-3--3-3-3-3--3-3-3-3-3-3--3-3-3-3-3-3--3--3-----------| 
G|-0--0-0-0-0--0-0-0-0-0-0--0-0-0-0-0-0--0--0-----------|
D|-0--0-0-0-0--0-0-0-0-0-0--0-0-0-0-0-0--0--0-----------|
A|------------------------------------------------------|
E|------------------------------------------------------|

2:57
Guitar 1
e|-----------------------------------------------------| 
B|-----------------------------------------------------| 
G|-----------------------------------------------------|
D|-----------------------------------------------------|
A|-3\5-5-5--3\5-5-5--3\5-5-5--3\5-5-5------------------|
E|-------------------------------------7-7-7-7-7-7-8---|

3:09
e|-----------------------------------------------------| 
B|---------5-7-8--7-5--------5-7-8--7-5----------5-6---| 
G|-5-7-8-9------------7-5--7------------7-5--5-7-------|
D|-----------------------------------------------------|
A|-----------------------------------------------------|
E|-----------------------------------------------------|

e|-----------------------------------------------------| 
B|-5-6--6p5-3--6p5-4--7~--7\3-3--3-5-6-6/7-------------| 
G|-----------------------------------------------------|
D|-----------------------------------------------------|
A|-----------------------------------------------------|
E|-----------------------------------------------------|

e|--------------------------------------------------------5------| 
B|-7/3--3-5-6-6/7--7-8-7-5----3-3-5p3---4\1-0-4\1-0--7----5------| 
G|--------------------------5---------5--------------------------|
D|------------------------------------------------------7----7---|
A|---------------------------------------------------------------|
E|---------------------------------------------------------------|

3:31
e-5/10-10--10-8-5-8-5---8-5---5-----| 
B---------------------------8-------| 
G-------------------------------7---|(x4)
D-----------------------------------|
A-----------------------------------|
E-----------------------------------|

e|-----------------------------------------------------| 
B|-----------------------------------------------------| 
G|-7-5-------------------------------------------------|
D|-----7-9-7-9-9--9-7-9-9--9-7-9-9--9-7-9-9--9-7-9-9---|
A|-----------------------------------------------------|
E|-----------------------------------------------------|

e|-----------------------------------------------------| 
B|-----------------------------------------------------| 
G|-----------------------------------------------------|
D|-9-9-9-9-----------7-9----7--------------------------|
A|---------10--10-10-----10----------------------------|
E|-----------------------------------------------------|





Comments


Popular Trigun tabs & chords
Vashs Theme Bass Tabs
Big Bluff Tabs
Colorless Sky Intro Tabs
Ht Tabs
Rakuen Tabs
Rakuen Paradise Tabs
Sandy Planet Tabs
Scattered Rain Tabs
Trigun Theme Tabs
Trigun Theme 1 Tabs


Song lyrics



↑ Back to top | Tablatures and chords are parodies/interpretations of the original songs. You may use it for private study, scholarship, research or language learning purposes only
© 2014 AZChords.com Contact us | Privacy policy | DMCA | Add/correct tabs | Request tabs | Top 50 tabs