» » »

Tribal Seeds, Stillness Of The Night Tabs (ver.1)

Artists:  A B C D E F G H I J K L M N O P Q R S T U V W X Y Z # 

Stillness Of The Night Tabs (ver.1)

Tribal Seeds Tabs
 Rating:
4/5 (4 votes)
Stillness Of The Night lessons Tabs too difficult? Try these video lessons and learn fast
1
                Tribal Seeds
The Harvest

Chords  (I usually just hit the E, B, and G strings)
  D Minor   C Major  A# Major  F Major
E|----5--------3-------1-------8-----------------------------------------|
B|----6--------5-------3-------10----------------------------------------|
G|----7--------5-------3-------10----------------------------------------|
D|----7--------5-------3-------10----------------------------------------|
A|----5--------3-------1-------8-----------------------------------------|
E|-----------------------------------------------------------------------|

Solo at 2:38
E|------------------------------------------------------------------------|
B|-10---------------13-10~--15-15-15-13-11-10~----------------------------|
G|---12-10----10-12-------------------------------------------------------|
D|---------12-------------------------------------------------------------|
A|------------------------------------------------------------------------|
E|------------------------------------------------------------------------|


E|--------------------------------------------------------------------------|
B|-10---------------13-10---10~--s-15-15-15~-s-15-15-15~--------------------|
G|---12-10----10-12------12-------------------------------------------------|
D|---------12---------------------------------------------------------------|
A|--------------------------------------------------------------------------|
E|--------------------------------------------------------------------------|

E|-----------------------------------------------8-----------------------|
B|-8-10-10-8-10--10-8-6-8-8-6-8--8-6-5-6-6-5-6-5---10--------------------|
G|-----------------------------------------------------------------------|
D|-----------------------------------------------------------------------|
A|-----------------------------------------------------------------------|
E|-----------------------------------------------------------------------|

E|---------------------------------------------------5-8----------------|
B|-8-10-10-8-10--10-8-6-8-8-6-8--8-6-5-6-6-5-6~--6-8-----6~-------------|
G|----------------------------------------------------------------------|
D|----------------------------------------------------------------------|
A|----------------------------------------------------------------------|
E|----------------------------------------------------------------------|
            
Submit corrections

comments powered by Disqus
↑ Back to top | Tribal Seeds Tabs for Stillness Of The Night. Lyrics for acoustic guitar and electric guitar. 1 Tablatures and chords are parodies/interpretations of the original songs. You may use it for private study, scholarship, research or language learning purposes only