» » »

Tribal Seeds, In Your Eyes Bass tabs (ver.2)

Artists:  A B C D E F G H I J K L M N O P Q R S T U V W X Y Z # 

In Your Eyes Bass tabs (ver.2)

Tribal Seeds Tabs
Rating:
0/5 (0 votes)
In Your Eyes lessons Tabs too difficult? Try these video lessons and learn fast
                Intro

G|----------------------------------------------------------------------------------------|
D|----------------------------------------------------------------------------------------|
A|-------------------8-6-6-6-------6-----------4-4-4-3-3-3--------------------------------|
E|--6-6-6-4-6------------------------4-4-4-----------------4------------------------------|
(x3)
G|----------------------------------------------------------------------------------------|
D|----------------------------------------------------------------------------------------|
A|-------------------8-6-6-6-------6-----------4-4-4-3-3-3--------------------------------|
E|--6-6-6-4-6------------------------4-4-4-----------------4-6-6-6-6-6-4------------------|

G|----------------------------------------------------------------------------------------|
D|----------------------------------------------------------------------------------------|
A|-------------------8-6-6-6-------6-----------4-4-4-3-3-3--------------------------------|
E|--6-6-6-4-6------------------------4-4-4-----------------4------------------------------|
(x2)
G|----------------------------------------------------------------------------------------|
D|----------------------------------------------------------------------------------------|
A|-------------------8-6-6-6-------8--6--4-----4-4-4-3-4-6-4-3----------------------------|
E|--6-6-6-4-6--------------------------------------------------4--------------------------|

G|----------------------------------------------------------------------------------------|
D|----------------------------------------------------------------------------------------|
A|-------------------8-6-6-6-------6-----------4-4-4-3-3-3--------------------------------|
E|--6-6-6-4-6------------------------4-4-4-----------------4------------------------------|
pause
1:11
G|----------------------------------------------------------------------------------------|
D|----------------------------------------------------------------------------------------|
A|-------------------8-6-6-6-------6-----------4-4-4-3-3-3--------------------------------|
E|--6-6-6-4-6------------------------4-4-4-----------------4------------------------------|
(x2)
G|----------------------------------------------------------------------------------------|
D|----------------------------------------------------------------------------------------|
A|-------------------8-6-6-6-------8--6--4-----4-4-3-4-6-4-3------------------------------|
E|--6-6-6-4-6------------------------------------------------4----------------------------|

G|----------------------------------------------------------------------------------------|
D|----------------------------------------------------------------------------------------|
A|-------------------8-6-6-6-------6-----------4-4-4-3-3-3--------------------------------|
E|--6-6-6-4-6------------------------4-4-4-----------------4------------------------------|
(x5)
G|----------------------------------------------------------------------------------------|
D|----------------------------------------------------------------------------------------|
A|-------------------8-6-6-6-------6-----------4-4-4-3-3-3--------------------------------|
E|--6-6-6-4-6/2-----------------------4-4-4----------------4------------------------------|
(x2)
G|----------------------------------------------------------------------------------------|
D|----------------------------------------------------------------------------------------|
A|-------------------8-6-6-6-------6-----------4-4-4-3-3-3--------------------------------|
E|--6-6-6-4-6------------------------4-4-4-----------------4------------------------------|
(x2)
G|----------------------------------------------------------------------------------------|
D|----------------------------------------------------------------------------------------|
A|-------------------8-6-6-6-------8--6--4-----4-4-3-4-6-4-3------------------------------|
E|--6-6-6-4-6------------------------------------------------4----------------------------|

G|----------------------------------------------------------------------------------------|
D|----------------------------------------------------------------------------------------|
A|-------------------8-6-6-6-------6-----------4-4-4-3-3-3--------------------------------|
E|--6-6-6-4-6------------------------4-4-4-----------------4------------------------------|

G|----------------------------------------------------------------------------------------|
D|----------------------------------------------------------------------------------------|
A|-------------------8--------------------------------------------------------------------|
E|--6-6-6-4-6-----------------------------------------------------------------------------|
Pause
3:00
G|----------------------------------------------------------------------------------------|
D|----------------------------------------------------------------------------------------|
A|-------------------8-6-6-6-------8--6--4-----4-4-3-4-6-4-3------------------------------|
E|--6-6-6-4-6------------------------------------------------4----------------------------|

G|----------------------------------------------------------------------------------------|
D|----------------------------------------------------------------------------------------|
A|-------------------8-6-6-6-------6-----------4-4-4-3-3-3--------------------------------|
E|--6-6-6-4-6------------------------4-4-4-----------------4------------------------------|
(x7)
G|----------------------------------------------------------------------------------------|
D|----------------------------------------------------------------------------------------|
A|-------------------8-6-6-6-------6-----------4-4-4-3-3-3--------------------------------|
E|--6-6-6-4-6/2-----------------------4-4-4----------------4------------------------------|
(x2)
G|----------------------------------------------------------------------------------------|
D|----------------------------------------------------------------------------------------|
A|-------------------8-6-6-6-------6-----------4-4-4-3-3-3--------------------------------|
E|--6-6-6-4-6------------------------4-4-4-----------------4------------------------------|
(x2)


G|----------------------------------------------------------------------------------------|
D|----------------------------------------------------------------------------------------|
A|-------------------8-6-6-6-------8--6--4-----4-4-3-4-6-4-3------------------------------|
E|--6-6-6-4-6------------------------------------------------4----------------------------|

G|----------------------------------------------------------------------------------------|
D|----------------------------------------------------------------------------------------|
A|-------------------8-6-6-6-------6-----------4-4-4-3-3-3--------------------------------|
E|--6-6-6-4-6------------------------4-4-4-----------------4------------------------------|
(x3)
            
Submit corrections

comments powered by Disqus
↑ Back to top | Tribal Seeds Bass for In Your Eyes. Lyrics for acoustic guitar and electric guitar. Tablatures and chords are parodies/interpretations of the original songs. You may use it for private study, scholarship, research or language learning purposes only