» » »

Tribal Seeds, Dark Angel Tabs (ver.1)

Artists:  A B C D E F G H I J K L M N O P Q R S T U V W X Y Z # 

Dark Angel Tabs (ver.1)

Tribal Seeds Tabs
Rating:
2/5 (1 vote)
Dark Angel lessons Tabs too difficult? Try these video lessons and learn fast
                (Intro)
-------------------------------------------------------------------------------
                             Dark Angel - Tribal Seeds
-------------------------------------------------------------------------------

                                                                       (2X)
e|-------0---------------1-------------------------------------------------|
B|-----1---1-----------1---1------------1---------------0-----------0---1--|
G|---2-------2-------2-------2--------0---0-----------0---0-------0---0----|
D|-2---------------3----------------2-------2-------2-------2---2----------|
A|--------------------------------3---------------2-----------2------------|
E|-------------------------------------------------------------------------|
  |___________|   |___________|  |___________|   
        2X             2X              2X             


e|-------0---------------|
B|-----1---1-------1--0--|
G|---2-------2---2----2--|
D|-2-----------2---------|
A|-----------------------|
E|-----------------------|



e|-----------------------------1-------------------------------------------|
B|-----------1-----------1---1---1--------------1-----------0--------------|
G|-----2---2---2-------2---2-------2------0---0---0-------0---0------------|
D|---2---2-------2---3------------------2---2-------2---2-------2----------|
A|-0----------------------------------3---------------2--------------------|
E|-------------------------------------------------------------------------|
  |_______________| 
           9X       
                                                                       (2X)
e|-----------------------------1-------------------------------------------|
B|-----------1-----------1---1---1--------------1-----------0--------------|
G|-----2---2---2-------2---2-------2------0---0---0-------0---0------------|
D|---2---2-------2---3------------------2---2-------2---2-------2----------|
A|-0----------------------------------3---------------2--------------------|
E|-------------------------------------------------------------------------|                     
            

comments powered by Disqus
↑ Back to top | Tribal Seeds Tabs for Dark Angel. Lyrics for acoustic guitar and electric guitar. Tablatures and chords are parodies/interpretations of the original songs. You may use it for private study, scholarship, research or language learning purposes only