» » »

Satisfaction Pony Tabs (ver.1)

Artists:  A B C D E F G H I J K L M N O P Q R S T U V W X Y Z # 

Satisfaction Pony Tabs (ver.1)

T Rex
Rating:
0/5 (0 votes)

Tabs too difficult? Try these video lessons and learn fast.
                     
      Satisfaction pony
e-----0-----------------------------|
B--------3-0------------------------|
G-------------2-0-------------------|         E E E E       x4
D-------------------2---------------|
A-----------------------------------|
E-----------------------------------|
           
     Doug the bugs an egg man                             

e-----0-----------------------------|
B--------3-0------------------------|
G-------------2-0-------------------|         E E E E       x4
D-------------------2---------------|
A-----------------------------------|
E-----------------------------------|
                                        



A
Like a jungle cut (2x) Oh my

            *Then repeat the first part over the following verse*

Satisfaction pony (4x)
Fall into the rainbow (2x)
Funky creole gumbo (2x)

A
Life's the same, it will always be (2x)
Yeah yeah yeah

            *Then repeat the first part over the following verse*

Satisfaction pony
Dali bop horizon (2x)
Is your life an inkwell
Will it make your head swell

A. Taylor
            
Tabs too difficult? Try these video lessons and learn fast.




comments powered by Disqus
↑ Back to top | Tablatures and chords are parodies/interpretations of the original songs. You may use it for private study, scholarship, research or language learning purposes only