» » »

T Rex, Prelude Tabs (ver.1)

Artists:  A B C D E F G H I J K L M N O P Q R S T U V W X Y Z # 

Prelude Tabs (ver.1)

T Rex Tabs
 Rating:
4/5 (4 votes)
Prelude lessons Tabs too difficult? Try these video lessons and learn fast
                ----------------
Prelude - T. Rex
----------------

Tuning: Standard

Intro (bell, one octave down because there is no 27th fret)
e|-15-15-15-15-15-15-15-15-|
B|-------------------------|
G|-------------------------|x2
D|-------------------------|
A|-------------------------|
E|-------------------------|

Part 1 x2
e|--------------5---------------|
B|----5h7-5-5h7----7-5-5h7-5h7--|
G|------------------------------|x2
D|-0----------------------------|
A|------------------------------|
E|------------------------------|

e|------------------------------------------5-7b9r7-5---------|
B|--------------------------------------5h7-----------7-5-5h7-|
G|----4h6-6-6-4h6-6-6-6-4h6-4h6-----4h6-----------------------|x2
D|------------------------------------------------------------|
A|-0-----------------------------0----------------------------|
E|------------------------------------------------------------|

Outro
e|-----------------5----------|
B|---------5--5h7-----7--5----|
G|-4--4h6-------------------6-|x2
D|----------------------------|
A|----------------------------|
E|----------------------------|

e|---------------2------------------------2----------------------|
B|-------2--2h4-----4--2------------2--4----4-2---4b6r4-2---4b6~-|
G|-1--3-------------------3~--1--3--------------3---------3------|
D|---------------------------------------------------------------|
A|---------------------------------------------------------------|
E|---------------------------------------------------------------|

| /  slide up
| \  slide down
| h  hammer-on
| p  pull-off
| ~  vibrato
| +  harmonic
| x  Mute note
            
Submit corrections

comments powered by Disqus
↑ Back to top | T Rex Tabs for Prelude. Lyrics for acoustic guitar and electric guitar. Tablatures and chords are parodies/interpretations of the original songs. You may use it for private study, scholarship, research or language learning purposes only