» » »

T Rex, New York City Tabs (ver.1)

Artists:  A B C D E F G H I J K L M N O P Q R S T U V W X Y Z # 

New York City Tabs (ver.1)

T Rex Tabs
Rating:
5/5 (1 vote)
New York City lessons Tabs too difficult? Try these video lessons and learn fast
                    Did you ever see a woman?       Comin' out of New York City

e|----------------|----------------|----------------|----------------|
B|----------------|----------------|----------------|----------------|
G|----------------|----------------|----------------|----------------|
D|----------------|----------------|---------5-7-5--|----------------|
A|---------5-7-5--|---------5-7-5--|--3--7----------|-----7---5-7-5--|
E|--3--7----------|--3--7----------|----------------|--3-------------| 

 With a frog in her hand?

e|----------------|----------------|----------------|
B|----------------|----------------|----------------|
G|----------------|----------------|----------------|    etc
D|----------5-7-5-|----------------|----------------|
A|--3--7----------|---------5-7-5--|-----7---5-7-5--|
E|----------------|--3--7----------|--3-------------|

I did don't ya know?   I did don't ya know?
   
e|--------------------|--------------------|
B|--------------------|--------------------|
G|--------------------|--------------------|
D|--10------9---------|--7-----------------|    x2 then
A|--10------9---------|--7-----------------|
E|--8-------7---------|--5-----------------|

I did don't ya know?    And don't it show...

e|--------------------|--------------------|
B|--------------------|--------------------|
G|--------------------|--------------------|
D|--10------9---------|--12----------------|   
A|--10------9---------|--12----------------|
E|--8-------7---------|--10----------------|

back to riff etc etc

and later on theres this little riff:

e|----------------------------------|
B|----------------------------------|
G|----------------------------------|
D|----------------------------------|
A|----------------------------------|
E|--3----5----8--7----3--5--3--5~---|

ends on  G, Em repeated

please rate, peace out x 
            
Submit corrections

comments powered by Disqus
↑ Back to top | T Rex Tabs for New York City. Lyrics for acoustic guitar and electric guitar. Tablatures and chords are parodies/interpretations of the original songs. You may use it for private study, scholarship, research or language learning purposes only