>
 >
Laser Love

Laser Love Guitar Tabs

T Rex - Laser Love chords, tabs, tablatures, lyrics

Guitar lessons | Add/correct | Request | Top 50 tabs Artists:  A B C D E F G H I J K L M N O P Q R S T U V W X Y Z 0-9

Laser Love Guitar Tabs – T Rex

CD, Sheet music, Poster

Do you like Laser Love? Share with your friends now
Tabs
T. Rex

an amazing song by the grandaddy of Glam Rock, Marc Bolan! I cant believe I'm the 1st to 
it, and I'm not sure its correct, but its near enough to have fun with.
I will add the lyrics underneath if I can. the --- things are for spacing only and have 
musical relevance eg. rests, timing etc.

INTRO:

main riff=
e|--2-2-3--3-2--2-2-3--3-2------------------------2-|
B|--3-3-3--3-3--3-3-3--3-3--3-3-1-1--1--3--1-1--1-3-|
G|--2-2-2--2-2--2-2-2--2-2--0-0-0-0--0--0--0-0--0-2-|
D|--0-0-0--0-0--0-0-0--0-0--2-2-2-2--2--2--2-2--2-0-|
A|--------------------------3-3-3-3--3--3--3-3--3---|
E|--------------------------------------------------|

a few slide bits are used now (by guitar 3 on the recording, with the riff above in the 

listen to the song for when to use them

e|-------------------|
B|-------------------|
G|--7/5--5----5--5/7-|
D|----------5--------|
A|-------------------|
E|-------------------|

e|-------10-|
B|--9/10----|
G|----------|
D|----------|
A|----------|
E|----------|

e|------------------------|
B|--12/13/12--10-10--10/8-|
G|------------------------|
D|------------------------|
A|------------------------|
E|------------------------|

 note: you can hammer on or slide the -8/10-
e|-------10---10/8----|
B|--8/10-----------10-|
G|--------------------|
D|--------------------|
A|--------------------|
E|--------------------|


e|--0-0-0-0-0-0~-------0-0-0-0-0--------|
B|--0-0-0-0-0-0~-------0-0-0-0-0--------|
G|--0-0-0-0-0-0~-------0-0-0-0-0--------| x2 (theres no 'Ah.' second time)
D|--0-0-0-0-0-0~-------0-0-0-0-0--------|
A|--x-x-x-x-x-x--------x-x-x-x-x--------|
E|--3-3-3-3-3-3~-------3-3-3-3-3--------|
                'Yeah!'           'Ah.'


VERSE 1:

     G                     Em
The Gold mouth lady mix a drink for me

e|--------------------------|
B|--------------------------|
G|--------------------------|
D|--------------------------|
A|--------------------------|
E|--5-5-3-3--3--5-5-3-3--3~-|

     G                  Em
She Lay beside me solid Company

e|--------------------------|
B|--------------------------|
G|--------------------------|
D|--------------------------|
A|--------------------------|
E|--5-5-3-3--3--5-5-3-3--3~-|

CHORUS:

     D              Cmaj7
You move on up, you move on back,
     D                    Cmaj7
Your laser love is like a heart attack

BRIDGE:
e|--2-2-3--3-2--2-2-3--3-2------------------------2            e|---|
B|--3-3-3--3-3--3-3-3--3-3--3-3-1-1--1--3--1-1--1-3            B|---|
G|--2-2-2--2-2--2-2-2--2-2--0-0-0-0--0--0--0-0--0-2            G|---|
D|--0-0-0--0-0--0-0-0--0-0--2-2-2-2--2--2--2-2--2-0            D|---|
A|--------------------------3-3-3-3--3--3--3-3--3-- x2 then a  A|2--|
E|-------------------------------------------------            E|---|


e|--0-0-0-0-0-0~-------0-0-0-0-0--------|
B|--0-0-0-0-0-0~-------0-0-0-0-0--------|
G|--0-0-0-0-0-0~-------0-0-0-0-0--------| x2 (theres no 'Yeah' or 'Ah.' second
D|--0-0-0-0-0-0~-------0-0-0-0-0--------|     time round)
A|--x-x-x-x-x-x--------x-x-x-x-x--------|
E|--3-3-3-3-3-3~-------3-3-3-3-3--------|
                'Yeah!'           'Ah.'

e|-----------2-|
B|--1-1--1---3-|
G|--0-0--0---2-|
D|--2-2--2---0-|
A|--3-3--3-----|
E|-------------|

e|--2-2-3--3-2--2-2-3--3-2------------------------2-|
B|--3-3-3--3-3--3-3-3--3-3--3-3-1-1--1--3--1-1--1-3-|
G|--2-2-2--2-2--2-2-2--2-2--0-0-0-0--0--0--0-0--0-2-|
D|--0-0-0--0-0--0-0-0--0-0--2-2-2-2--2--2--2-2--2-0-| repeat
A|--------------------------3-3-3-3--3--3--3-3--3---|
E|--------------------------------------------------|

e|--0-0-0-0-0-0~-------0-0-0-0-0--------|
B|--0-0-0-0-0-0~-------0-0-0-0-0--------|
G|--0-0-0-0-0-0~-------0-0-0-0-0--------| x2 (theres no 'Ah.' second time)
D|--0-0-0-0-0-0~-------0-0-0-0-0--------|
A|--x-x-x-x-x-x--------x-x-x-x-x--------|
E|--3-3-3-3-3-3~-------3-3-3-3-3--------|
                'Yeah!'           'Ah.'

CHORUS 2:

e|----------------|
B|--1-1-1--1--0-0-|
G|--0-0-0--0--0-0-|
D|--2-2-2--2--0-0-|
A|--3-3-3--3------|
E|----------------|

     D              Cmaj7
You Move on up, you move on back.
      D                    Cmaj7
Your laser love is like a heart attack.

OUTRO/SOLO:

Im not so sure about this, but here goes...

w/ main riff

e|--------------------------------|
B|--------------------------------|
G|--5/7-7~--------7/5---5--5/7----|
D|--------------------7-----------|
A|--------------------------------|
E|--------------------------------|

e|-------8----8/10----------8/10--8----8---8/10----------|
B|--8/10---10-----------------------10-------------------|
G|-------------------------------------------------------|
D|-------------------------------------------------------|
A|-------------------------------------------------------|
E|-------------------------------------------------------|

e|--13/15--15/13-------------------------------------------10-|
B|-----------------13/15--------13/15--15-15/13-13-13-8-8-----|
G|------------------------------------------------------------|
D|------------------------------------------------------------|
A|------------------------------------------------------------|
E|------------------------------------------------------------|

e|------8--------10--8---------------------------------------10-|
B|----------------------10--8----------------------8/10--13-----|
G|-----------------------------10-7--7----7-10--10--------------|
D|--------------------------------------------------------------|
A|--------------------------------------------------------------|
E|--------------------------------------------------------------|

e|--10/13----13/15--13-15/17--15/17-------------------------------|
B|----------------------------------15----15---15--15------18--20-|
G|-------------------------------------14-------------------------|
D|----------------------------------------------------------------|
A|----------------------------------------------------------------|
E|----------------------------------------------------------------|

e|--15/17----------------------15/17----16-17-16-17/17--15--13-----|
B|---------15--15--15--15--15----------------------------------15--|
G|-----------------------------------------------------------------|
D|-----------------------------------------------------------------|
A|-----------------------------------------------------------------|
E|-----------------------------------------------------------------|

e|--------------13-------------------------------------8--10~-|
B|--h13--13/15------15--15/13/10/8----------------8-10--------|
G|------------------------------------10--7---10--------------|
D|------------------------------------------------------------|
A|------------------------------------------------------------|
E|------------------------------------------------------------|


thats it. PM me for questions.





Comments


Popular T Rex tabs & chords
By The Light Of A Magical Moon 1 Chords
Change Chords
Dreamy Lady Chords
Main Man Chords
Planet Queen 1 Chords
Get It On Drum Tabs
A Beard Of Stars Tabs
Hot Love Tabs
Broken Hearted Blues Ukulele
Jet Tambourine Ukulele


Song lyrics



↑ Back to top | Tablatures and chords are parodies/interpretations of the original songs. You may use it for private study, scholarship, research or language learning purposes only
© 2014 AZChords.com Contact us | Privacy policy | DMCA | Add/correct tabs | Request tabs | Top 50 tabs