» » »

Jeepster Bass tabs (ver.1)

Artists:  A B C D E F G H I J K L M N O P Q R S T U V W X Y Z # 

Jeepster Bass tabs (ver.1)

T Rex
Rating:
3/5 (1 vote)

Hard to play? Try these video lessons and learn fast.
                -------------------------------------------------------------------------------
-------------------------------------------------------------------------------


Tuning: E A D G

Intro
G-------| (4x)
D-------|
A-------|
E-5-5-5-| 

Verse
G------------------| (5x)
D------------------|
A------------------|
E-0-2-4-5--0--5----|

G------------------|-------------|----------------|----------------|
D------------------|-------------|----------------|----------------|
A------------------|-3--2--0--2--|-5--0--5--0-2-4-|-5--0--5--4-2-0-|
E-0-2-4-5--0--5--0-|-------------|----------------|----------------|

G------------------|--------------|-------------------|
D------------------|--------------|-------------------|
A------------------|--------------|-------3--2--1--0--|
E-5--0--5--0-2-4---|-5--0--5--4-2-|-3--2--------------|
                                 Oh girl I'm just a jeepster for your love

Back to verse.

After the third chorus play the verse pattern once and go back to the intro.

Have fun with it!
            
Hard to play? Try these video lessons and learn fast. | Correct




comments powered by Disqus
↑ Back to top | Tablatures and chords are parodies/interpretations of the original songs. You may use it for private study, scholarship, research or language learning purposes only