» » »

Dandy In The Underworld Tabs (ver.2)

Artists:  A B C D E F G H I J K L M N O P Q R S T U V W X Y Z # 

Dandy In The Underworld Tabs (ver.2)

T Rex
Rating:
0/5 (0 votes)

Tabs too difficult? Try these video lessons and learn fast.
                Intro:


e |--------------|
B |--------------|
G |--------------|
D |--------------|
A |--------------|
E  |--8-7-3-1----|

Verse
e|------------------------------------|
B|------------------------------------|
G|--5---x---5---------2---x--2--------|
D|--5---x---5---------2---x--2--------|
A|--3---x---3---------0---x--0--------|
E|------------------------------------|
    Prince of players,    pawn of none


e|--------------------------------------------------|
B|--------------------------------------------------|
G|--------------------------------------------------|
D|--3--x--3-----------5-5-5-5-5-5-5-5-5-5-5-5-------|
A|--3--x--3-----------5-5-5-5-5-5-5-5-5-5-5-5-------|
E|--1--x--1------------3-3-3-3-3-3-3-3-3-3-3-3------|
     Born with steel reigns, on the heart of the sun


 e/---------------------------------------|
B|----------------------------------------|
G|--5---x----5-------------2---x--2-------|
D|--5---x----5-------------2---x--2-------|
A|--3---x----3-------------0---x--0-------|
E|----------------------------------------|
    Gipsy explorer,     of the New Jersey heights


e|-------------------------------------------------------|
B|-------------------------------------------------------|
G|-------------------------------------------------------|
D|-3----x----3----x-----5-5-5-5-5-5-5-5-5-5-5-5-5-5-5----|
A|-3----x----3----x-----5-5-5-5-5-5-5-5-5-5-5-5-5-5-5----|
E|-1----x----1----x-----3-3-3-3-3-3-3-3-3-3-3-3-3-3-3----|
    Exalted companion           of cocaine nights            Coz he’s a

Chorus:

e|------------------------------------------------------|
B|------------------------------------------------------|
G|--5---------------------2-----------------------------|
D|--5---------------------2-----------------------------|
A|--3---------------------0-----------------------------|
E|------------------------------------------------------|
     Dandy, in the underworld    Dandy, in the underworld


e|-------------------------------------------|
B|-------------------------------------------|
G|--5----------------------------------------|
D|--5--------------------------5-------------|
A|--3--------------------------5-------------|
E|-----------------------------3-------------|
       When will he come up for air   Oh


e|-----------------------------------|
B|-----------------------------------|
G|--------------------5--------------|
D|-------3-------5----5--------------|
A|-------3-------5----3----3-2-------|
E|-------1-------3-------------3-----|
     Will anybody ever care?


Verse 2:
At an old eighteen, exiled he was
To the deserted kingdoms, of a mythical Oz
Distraction he wanted, to destruction he fell
Now he forever stalks the ancient mansions of Hell

Chorus:

Solo x2:

e|----------------------|----------------------|
B|----------------------|----------------------|
G|----------------------|----------------------|
D|--14-14--12-14-12-14--|-14-14--12-14-12-14---|
A|----------------------|----------------------|
E|----------------------|----------------------|


e|----------------------|------------------------------|
B|----------------------|------------------------------|
G|----------------------|------------------------------|
D|--15-15--14-15-14-15--|-15-15--14-15-14-15—14~-12~---|
A|----------------------|------------------------------|
E|----------------------|------------------------------|
            
Tabs too difficult? Try these video lessons and learn fast.




comments powered by Disqus
↑ Back to top | Tablatures and chords are parodies/interpretations of the original songs. You may use it for private study, scholarship, research or language learning purposes only