» » »

Children Of The Revolution Tabs (ver.3)

Artists:  A B C D E F G H I J K L M N O P Q R S T U V W X Y Z # 

Children Of The Revolution Tabs (ver.3)

T Rex
Rating:
5/5 (5 votes)

Hard to play? Try these video lessons and learn fast.
                T-Rex - Children Of The Revolution
The cords should be corect. But you will have to listen to the song to get the Rhytem right.

Intro:
e]-------------------------------------------]
B]-------------------------------------------]
G]1----1----0--1--0--1---0--1--0--1---0--1---]
D]2----2----0--2--0--2---0--2--0--2---0--2---]
A]2----2----0--2--0--2---0--2--0--2---x--2---]
E]0----0----0--0--0--0---0--0--0--0---3--0---]

Verse:
Well, you can bump and gride
e]---------------------------------------------------]
B]---------------------------------------------------]
G]------------1---------1-----------0--1----0--1-----]
D]------------2---------2-----------0--2----0--2-----]
A]------------2---------2-----------0--2----0--2-----]
E]------------0---------0-----------0--0----0--0-----]

If it's god for youre mind
e]---------------------------------------------------]
B]---------------------------------------------------]
G]------------1---------1-----------0--1----0--1-----]
D]------------2---------2-----------0--2----0--2-----]
A]------------2---------2-----------0--2----0--2-----]
E]------------0---------0-----------0--0----0--0-----]

And so on.

Ref (Open Cords):
         G             C                Am
But you won't fool the children of the revolution
        G             C                Am               (Intro)
No you won't fool the children of the revolution - No No No


I'm sorry if i misspeld enything. Im not werry god whit english.
//David
            
Hard to play? Try these video lessons and learn fast. | Correct




comments powered by Disqus
↑ Back to top | Tablatures and chords are parodies/interpretations of the original songs. You may use it for private study, scholarship, research or language learning purposes only