» » »

T Rex, Children Of The Revolution Tabs (ver.1)

Artists:  A B C D E F G H I J K L M N O P Q R S T U V W X Y Z # 

Children Of The Revolution Tabs (ver.1)

T Rex Tabs
 Rating:
3.5/5 (8 votes)
Children Of The Revolution lessons Tabs too difficult? Try these video lessons and learn fast
                
Intro/main riff
E|-----------------------------|------------------------------------------|
B|-----------------------------|------------------------------------------|
G|-1---1-----0--1----0--1------|--0--1----0--1----0--1----0--1------------|
D|-2---2-----0--2----0--2------|--0--2----0--2----0--2----0--2----5----2--|
A|-2---2-----0--2----0--2------|--0--2----0--2----0--2----0--2----5----2--|
E|-0---0-----------------------|------------------------------------------|
                       Play these first two bars twice!

Verse/chorus
|-----------------------------|------------------------------------------|
|-----------------------------|------------------------------------------|
|--1---1-----0--1-----0--1----|--0--1----0--1----0--1----0--1------------|
|--2---2-----0--2-----0--2----|--0--2----0--2----0--2----0--2----5----2--|
|--2---2-----0--2-----0--2----|--0--2----0--2----0--2----0--2----5----2--|
|--0---0----------------------|------------------------------------------|

|-----------------------------|-------------|
|-----------------------------|-------------|
|--1---1-----0--1-----0--1----|--1-----1----|
|--2---2-----0--2-----0--2----|--2-----2----|
|--2---2-----0--2-----0--2----|--2-----2----|
|--0---0----------------------|--0-----0----|

|--3-----3--------------------|-------------------|
|--3-----3-----5-----5--------|-------------------|
|--4-----4-----5-----5--------|-------------------|
|--5-----5-----5-----5--------|-----7-------------|    X2
|--5-----5-----3-----3--------|-------------------|
|--3-----3----------------5---|--5------7-----5---|

Main riff/outro
|--------------------------|------------------------------------------|
|--------------------------|------------------------------------------|
|--1---1----0--1----0--1---|--0--1----0--1----0--1----0--1------------|
|--2---2----0--2----0--2---|--0--2----0--2----0--2----0--2----5----2--|  X2
|--2---2----0--2----0--2---|--0--2----0--2----0--2----0--2----5----2--|
|--0---0-------------------|------------------------------------------|

|-----|
|--0--|
|--1--|
|--2--|
|--2--|
|--0--|

Listen to the track to get proper timing, and have fun playing!
            
Submit corrections

comments powered by Disqus
↑ Back to top | T Rex Tabs for Children Of The Revolution. Lyrics for acoustic guitar and electric guitar. Tablatures and chords are parodies/interpretations of the original songs. You may use it for private study, scholarship, research or language learning purposes only