» » »

T Rex, Buick Mackane Bass tabs (ver.1)

Artists:  A B C D E F G H I J K L M N O P Q R S T U V W X Y Z # 

Buick Mackane Bass tabs (ver.1)

T Rex Tabs
 Rating:
4/5 (4 votes)
Buick Mackane lessons Tabs too difficult? Try these video lessons and learn fast
1
                -------------------------------------------------------------------------------
			     BUICK MACKANE- T Rex
-------------------------------------------------------------------------------


Tuning: standard EADG

Bassist:  Steve Currie

no one put a bass tab up yet for this? Well it's dirty work but 
somebody gotta do it :-)

INTRO (0:00-0:19)

G|---------------------------------------------------------------------------|
D|----------------------5-------------5-------------------------------5------|
A|-5-7~--5-7~---5-7-5-7--7---5-7-5-7----7-5----------5-7~-5-7-5-7-5-7--7-----|
E|-----------------------------------------7-5~--5-7-------------------------|

MAIN RIFF (0:20-1:46)

G|---------------------------------------------------------------------------|
D|-------------------5-----------5-------------------------------------------|
A|-5-7x-5-7x-5-7-5-7--7x-5-7-5-7--7-5----------5-7---------------------------|
E|------------------------------------7-5~-5-7-------------------------------|
 it sort of breaks up a bit between 1:46 and 2:03,  kind of

G|---------------------------------------------------------------------------|
D|-----5---------------------------------------------------------------------|
A|-5-7--7--5-7---------------------------------------------------------------|
E|-------7-------------------------------------------------------------------|
PLAY OUT  (2:04-3:35)

G|---------------------------------------------------------------------------|
D|---5--------5--------------------------------------------------------------|
A|-7--7-5---7--7-------------------------------------------------------------|
E|--------7------------------------------------------------------------------|


| /  slide up
| \  slide down
| h  hammer-on
| p  pull-off
| ~  vibrato
| +  harmonic
| x  Mute note
            
Submit corrections

comments powered by Disqus
↑ Back to top | T Rex Bass for Buick Mackane. Lyrics for acoustic guitar and electric guitar. 1 Tablatures and chords are parodies/interpretations of the original songs. You may use it for private study, scholarship, research or language learning purposes only