» » »

20th Century Boy Tabs (ver.3)

Artists:  A B C D E F G H I J K L M N O P Q R S T U V W X Y Z # 

20th Century Boy Tabs (ver.3)

T Rex
Rating:
4/5 (5 votes)

Hard to play? Try these video lessons and learn fast.
                This is a very simple song but i like it, have fun, please rate.

                        Standard Tuning.
  E   E
e-------------------------------------------------------|
b-------------------------------------------------------|
g-1---1-------------------------------------------------|
d-2---2---OWWW!----2----2---2---2--2--2--2--2-----------|
a-2---2------------2----2---2---2--2--2--2--2-----------|
E---------------------------3------3-----3--------------|


Part A
e-------------------------------------------------------|
b-------------------------------------------------------|
g-------------------------------------------------------|     x3
d--2----2---2---2--2--2--2--2---------------------------|
a--2----2---2---2--2--2--2--2---------------------------|
E-----------3------3-----3------------------------------|

verse
e---------------------------------------------|
b---------------------------------------------|
g---2--2---x--x--2--x--x----------------------|
d---2--2---x--x--2--x--x----------------------|
a---------------------------------------------|
E---------------------------------------------|
continue this muted strumming throughout the verse,
listen to the song to get the rythm correct. Then
Part A
e-------------------------------------------------------|
b-------------------------------------------------------|
g-------------------------------------------------------|     x2
d--2----2---2---2--2--2--2--2---------------------------|
a--2----2---2---2--2--2--2--2---------------------------|
E-----------3------3-----3------------------------------|

verse
e---------------------------------------------|
b---------------------------------------------|
g---2--2---x--x--2--x--x----------------------|
d---2--2---x--x--2--x--x----------------------|
a---------------------------------------------|
E---------------------------------------------|

Part A
e-------------------------------------------------------|
b-------------------------------------------------------|
g-------------------------------------------------------|     x2
d--2----2---2---2--2--2--2--2---------------------------|
a--2----2---2---2--2--2--2--2---------------------------|
E-----------3------3-----3------------------------------|

chorus
....and its plain to see you were meant for me yeh
e---------------------------------------------------|
b---------------------------------------------------|
g---2------------------------------4-----4---4---4--|
d---2------------------------------4-----4---4---4--|
a----------------------------------2-----2---2---2--|
E---------------------------------------------------|

im your boy, your 20 century toy
e---------------------------------|
b---------------------------------|
g---------------------------------|
d--2------------------------------|
a--2------------------------------|
E---------------------------------|


Part A
e-------------------------------------------------------|
b-------------------------------------------------------|
g-------------------------------------------------------|     x2
d--2----2---2---2--2--2--2--2---------------------------|
a--2----2---2---2--2--2--2--2---------------------------|
E-----------3------3-----3------------------------------|

verse
Part A
verse
chorus

bridge

...20.....cent..ury....toy....i..wan...na...be....your..boy
e-----------------------------------------------------------------|
b-----------------------------------------------------------------|
g-9---9----9---7--7-----9-----9----9----9----9-----12----9--------|
d-9---9----9---7--7-----9-----7----7----7----7-----10----7--------|   x4
a-7---7----7---5--5-----7-----7----7----7----7-----10----7--------|
E-----------------------------------------------------------------|

verse
Part A
verse
Part A
chorus
bridge
play an Em til fade -
e-0
b-0
g-0
d-2
a-2
e-0

Tis a good song, please rate this,
sorry if any thing is in the wrong order,
all comments are welcome... well..nice ones
Dan.
            
Hard to play? Try these video lessons and learn fast. | Correct




comments powered by Disqus
↑ Back to top | Tablatures and chords are parodies/interpretations of the original songs. You may use it for private study, scholarship, research or language learning purposes only