» » »

T Rex, 20th Century Boy Bass tabs (ver.3)

Artists:  A B C D E F G H I J K L M N O P Q R S T U V W X Y Z # 

20th Century Boy Bass tabs (ver.3)

T Rex Tabs
 Rating:
4/5 (4 votes)
20th Century Boy lessons Tabs too difficult? Try these video lessons and learn fast
1
                -------------------------------------------------------------------------------
			     20th Century Boy - T-Rex
-------------------------------------------------------------------------------


Tuning: Standard  (You can drop E it sounds just the same, up to you.)

INTRO...

G|-----------------------------------------|
D|-----------------------------------------|        x4
A|--7-7-10-7-10-7-10-7*--------------------| 
E|--0-0------------------------------------|

VERSE...

G|---------------------------------------------------------------------------|
D|---------------------------------------------------------------------------|
A|------------------------------7-7-10-7-10-7-10-7*------7-7-10-7-10-7-10-7*-|
E|-5555555555555555555555555----0-0----------------------0-0-----------------|

G|---------------------------------------------------------------------------|
D|---------------------------------------------------------------------------|
A|------------------------------7-7-10-7-10-7-10-7*------7-7-10-7-10-7-10-7*-|
E|-5555555555555555555555555----0-0----------------------0-0-----------------|

CHORUS...

G|---------------------------------------------------------------------------|
D|---------------------------------------------------------------------------|
A|-----------------------------------7-7-10-7-10-7-10-7*--7-7-10-7-10-7-10-7*|
E|777777777--555555555--0000000000*--0-0------------------0-0----------------|

G|---------------------------------------------------------------------------|
D|---------------------------------------------------------------------------|
A|-----------------------------------7-7-10-7-10-7-10-7*--7-7-10-7-10-7-10-7*|
E|777777777--555555555--0000000000*--0-0------------------0-0----------------|

G|---------------------------------------------------------------------------|
D|---------------------------------------------------------------------------|
A|-----------------------------------7-7-10-7-10-7-10-7*--7-7-10-7-10-7-10-7*|
E|77777777---55555555---0000000000*--0-0------------------0-0----------------|

G|---------------------------------------------------------------------------|
D|---------------------------------------------------------------------------|
A|---------------------------------------------------------------------------|
E|55555555---77777777---00000000---------------------------------------------|

SONG LAYOUT...

Intro 
Verse
Chorus 
Verse
Chorus 
Solo (dont play any thing or just EEEEEEEE... if you want) 
Fade







| /  slide up
| \  slide down
| h  hammer-on
| p  pull-off
| ~  vibrato
| +  harmonic
| x  Mute note
| *  Hold note
===============================================================================
            
Submit corrections

comments powered by Disqus
↑ Back to top | T Rex Bass for 20th Century Boy. Lyrics for acoustic guitar and electric guitar. 1 Tablatures and chords are parodies/interpretations of the original songs. You may use it for private study, scholarship, research or language learning purposes only