» » »

T Rex, 20th Century Boy Tabs (ver.1)

Artists:  A B C D E F G H I J K L M N O P Q R S T U V W X Y Z # 

20th Century Boy Tabs (ver.1)

T Rex Tabs
 Rating:
3.3/5 (14 votes)
20th Century Boy lessons Tabs too difficult? Try these video lessons and learn fast
                
Intro

e|-000-000-|-000-------------------------|---------------------------------|
B|-000-000-|-000-------------------------|---------------------------------|
G|-111-111-|-111-------------------------|---------------------------------|
D|-222-222-|-222-------------------------|---------------------------------|
A|-222-222-|-222----------------------x4-|---------------------------------|
E|-000-000-|-000-0-0-3b-0-0-3b-0-3b-0----|---------------------------------|

 Verse
e|-----------5-5--------5-5---------5-5-----------000----------------------|
B|-----------5-5--------5-5---------5-5-----------000----------------------|
G|------------------------------------------------111----------------------|
D|-2-2-4-4-2----2-4-4-2-----2-4-4-2-----2-4-4-2---222----------------------|
A|-0-0-0-0-0----0-0-0-0-----0-0-0-0-----0-0-0-0---222----------------------|
E|----------------------------------------------3~000-0-0-3b-0-0-3b-0-3b-0-|

e|-000---------------------------------------------------------------------|
B|-000---------------------------------------------------------------------|
G|-111---------------------------------------------------------------------|
D|-222---------------------------------------------------------------------|
A|-222-----------------------x2--------------------------------------------|
E|-000-0-0-3b-0-0-3b-0-3b-0------------------------------------------------|

e|-5-5-5-5-5-5-5-5-7-7-7-7-7-7-7-7-0-0-0-0-0-0-0-0-------------------------|
B|-5-5-5-5-5-5-5-5-7-7-7-7-7-7-7-7-0-0-0-0-0-0-0-0-------------------------|
G|-6-6-6-6-6-6-6-6-8-8-8-8-8-8-8-8-1-1-1-1-1-1-1-1-------------------------|
D|-7-7-7-7-7-7-7-7-9-9-9-9-9-9-9-9-2-2-2-2-2-2-2-2-------------------------|
A|-7-7-7-7-7-7-7-7-9-9-9-9-9-9-9-9-2-2-2-2-2-2-2-2-------------------------|
E|-5-5-5-5-5-5-5-5-7-7-7-7-7-7-7-7-0-0-0-0-0-0-0-0-------------------------|

e|-000---------------------------------------------------------------------|
B|-000---------------------------------------------------------------------|
G|-111---------------------------------------------------------------------|
D|-222---------------------------------------------------------------------|
A|-222---------------------------------------------------------------------|
E|-000-0-0-3b-0-0-3b-0-3b-0-x2---------------------------------------------|

Verse
e|-----------5-5--------5-5---------5-5-----------000----------------------|
B|-----------5-5--------5-5---------5-5-----------000----------------------|
G|------------------------------------------------111----------------------|
D|-2-2-4-4-2----2-4-4-2-----2-4-4-2-----2-4-4-2---222----------------------|
A|-0-0-0-0-0----0-0-0-0-----0-0-0-0-----0-0-0-0---222----------------------|
E|----------------------------------------------3~000-0-0-3b-0-0-3b-0-3b-0-|

e|-000---------------------------------------------------------------------|
B|-000---------------------------------------------------------------------|
G|-111---------------------------------------------------------------------|
D|-222---------------------------------------------------------------------|
A|-222-----------------------x2--------------------------------------------|
E|-000-0-0-3b-0-0-3b-0-3b-0------------------------------------------------|

e|-5-5-5-5-5-5-5-5-7-7-7-7-7-7-7-7-0-0-0-0-0-0-0-0-------------------------|
B|-5-5-5-5-5-5-5-5-7-7-7-7-7-7-7-7-0-0-0-0-0-0-0-0-------------------------|
G|-6-6-6-6-6-6-6-6-8-8-8-8-8-8-8-8-1-1-1-1-1-1-1-1-------------------------|
D|-7-7-7-7-7-7-7-7-9-9-9-9-9-9-9-9-2-2-2-2-2-2-2-2-------------------------|
A|-7-7-7-7-7-7-7-7-9-9-9-9-9-9-9-9-2-2-2-2-2-2-2-2-------------------------|
E|-5-5-5-5-5-5-5-5-7-7-7-7-7-7-7-7-0-0-0-0-0-0-0-0-------------------------|


Twentieth century boy i wanna be your toy
e|-------------------------------------------------------------------------|
B|-------------------------------------------------------------------------|
G|-999-9-9-9-9-7-9--9-9-9-9----999-9-9-9-9-12-9----------------------------|
D|-999-9-9-9-9-7-9--9-9-9-9----999-9-9-9-9-12-9----------------------------|
A|-777-7-7-7-7-5-7--7-7-7-7----777-7-7-7-7-10-7------------------x4--------|
E|-------------------------------------------------------------------------|

Verse
e|-----------5-5--------5-5---------5-5-----------000----------------------|
B|-----------5-5--------5-5---------5-5-----------000----------------------|
G|------------------------------------------------111----------------------|
D|-2-2-4-4-2----2-4-4-2-----2-4-4-2-----2-4-4-2---222----------------------|
A|-0-0-0-0-0----0-0-0-0-----0-0-0-0-----0-0-0-0---222----------------------|
E|----------------------------------------------3~000-0-0-3b-0-0-3b-0-3b-0-|

e|-000---------------------------------------------------------------------|
B|-000---------------------------------------------------------------------|
G|-111---------------------------------------------------------------------|
D|-222---------------------------------------------------------------------|
A|-222-----------------------x2--------------------------------------------|
E|-000-0-0-3b-0-0-3b-0-3b-0------------------------------------------------|

e|-5-5-5-5-5-5-5-5-7-7-7-7-7-7-7-7-0-0-0-0-0-0-0-0-------------------------|
B|-5-5-5-5-5-5-5-5-7-7-7-7-7-7-7-7-0-0-0-0-0-0-0-0-------------------------|
G|-6-6-6-6-6-6-6-6-8-8-8-8-8-8-8-8-1-1-1-1-1-1-1-1-------------------------|
D|-7-7-7-7-7-7-7-7-9-9-9-9-9-9-9-9-2-2-2-2-2-2-2-2-------------------------|
A|-7-7-7-7-7-7-7-7-9-9-9-9-9-9-9-9-2-2-2-2-2-2-2-2-------------------------|
E|-5-5-5-5-5-5-5-5-7-7-7-7-7-7-7-7-0-0-0-0-0-0-0-0-------------------------|


Twentieth century boy i wanna be your toy
e|-------------------------------------------------------------------------|
B|-------------------------------------------------------------------------|
G|-999-9-9-9-9-7-9--9-9-9-9----999-9-9-9-9-12-9----------------------------|
D|-999-9-9-9-9-7-9--9-9-9-9----999-9-9-9-9-12-9----------------------------|
A|-777-7-7-7-7-5-7--7-7-7-7----777-7-7-7-7-10-7------------------x4--------|
E|-------------------------------------------------------------------------|

Outro solo thing (not quite sure on this part)
e|-6b-6b-6b-6b-6b-6b-6b-6b-6b-6b-10b-10b-10b-10b-10b-7-10b-7-10b-7-10b-7---|
B|-------------------------------------------------------------------------|
G|-------------------------------------------------------------------------|
D|-------------------------------------------------------------------------|
A|-------------------------------------------------------------------------|
E|-------------------------------------------------------------------------|

Fade Out
            
Submit corrections

comments powered by Disqus
↑ Back to top | T Rex Tabs for 20th Century Boy. Lyrics for acoustic guitar and electric guitar. Tablatures and chords are parodies/interpretations of the original songs. You may use it for private study, scholarship, research or language learning purposes only