>
 >
Life's An Elevator

Life's An Elevator Guitar Tabs

T-Rex - Life's An Elevator chords, tabs, tablatures, lyrics

Guitar lessons | Add/correct | Request | Top 50 tabs Artists:  A B C D E F G H I J K L M N O P Q R S T U V W X Y Z 0-9

Life's An Elevator Guitar Tabs – T-Rex

CD, Sheet music, Poster

Do you like Life's An Elevator? Share with your friends now
Tabs
T Rex - Life's An Elevator

There are two guitars in this, so grab your friend down below or whatever :D
Not 100% sure this is absolutely correctly timed and all that, but to be frank; I 
care less. It's better than having nothing at all. And I'm sure you'll be able to figure it 
if this doesn't help.


Intro & Verse

e------------------------------------------------|
B------------------------------------------------|
G------------------------------------------------|
D--5-3-----------3--------5-3-----------3-5------|] G. I   The usual
A------5-3--------------------3-5----------------| \
E----------3----------------------3--------------|  \
                                                     )
e--------------5---5-6-5--------------5---5-6-5--|  /
B------------------------------------------------| /
G------------7---7--------5p3-------7---7--------|] G. II  12-stringed
D----------5------------------3h5-5--------------|
A------------------------------------------------|
E------------------------------------------------|
                          [      ]
                   The "framed" section above is
                   played during the rest of the verses.

Chorus

e--------------------------------------------------------------|
B--8------------------4------------------8------------------4--|
G--8---8-8-8-8-8--8-7-5---5-5-5-5-5--5-7-8---8-8-8-8-8--8-7-5--|
D--8---8-8-8-8-8--8-7-5---5-5-5-5-5--5-7-8---8-8-8-8-8--8-7-5--|] G. I
A--6---6-6-6-6-6--6-5-3---3-3-3-3-3--3-5-6---6-6-6-6-6--6-5-3--| \
E--------------------------------------------------------------|  \
                                                                   )
e--------------------------------------------------------------|  /
B--------------------------------------------------------------| /
G---Plays something I can't quite hear, so go for the same-----|] G. II
D----as guitar one or make something up as you go along.-------|
A--------------------------------------------------------------|
E--------------------------------------------------------------|

Lyrics w/ chords


Gm/Gm10
Sat with a cat on your head alone at last
Gm/Gm10
You cry with a sigh resurrecting all your past


Eb
Life's an elevator
C
It goes up and down
Eb
Life's an elevator
C
Can't you dig the sound?


Gm/Gm10
Swift is the kill shadows fill the empty walls
Gm/Gm10
Wild is the word that engulfs the sacred halls


Eb
Life's an elevator
C
It goes up and down
Eb
Life's an elevator
C
Can't you dig the sound?


Gm/Gm10
Scenes from your past spread before the flaming dawn
Gm/Gm10
Have faith in the hearts of the world they're rocking on


Eb
Life's an elevator
C
It goes up and down
Eb
Life's an elevator
C
Can't you dig the sound?

There are some minor variations through-out the song,
but none you won't hear clearly.
Chorus is played two times last time around, and then it's the
intro/verse-part twice and some harmonics.





Comments


Popular T-Rex tabs & chords
I Love To Boogie Bass Tabs
Jeepster Bass Tabs
Dreamy Lady Chords
Eastern Spell Chords
Mystic Lady Chords
Rip-Off Chords
Baby Boomerang Tabs
Dandy In The Underworld Tabs
Hot Love Tabs
Jeepster Tabs


Song lyrics



↑ Back to top | Tablatures and chords are parodies/interpretations of the original songs. You may use it for private study, scholarship, research or language learning purposes only
© 2014 AZChords.com Contact us | Privacy policy | DMCA | Add/correct tabs | Request tabs | Top 50 tabs