» » »

Hot Love Bass tabs (ver.1)

Artists:  A B C D E F G H I J K L M N O P Q R S T U V W X Y Z # 

Hot Love Bass tabs (ver.1)

T-Rex
Rating:
0/5 (0 votes)

Hard to play? Try these video lessons and learn fast.
                HOT LOVE
BY T-REX

Riff 1
|------------------------|------------------------|
|--------------2---------|--------------2---------|
|---------5---------5----|---------5---------5----|
|----3-------------------|----3-------------------|

Riff 2
|------------------------|------------------------|
|------------------------|------------------------|
|----3--3--3--3--3--3----|----2----0--0--0--0--0--|
|------------------------|------------------------|

Riff 3
|------------------------|------------------------|
|------------------------|------------------------|
|----5--5--5--5--5--5----|----3----2--0--0--0--0--|
|------------------------|------------------------|

Riff 4
|------------------------|------------------------|
|------------------------|------------------------|
|---------0----2----3----|----3----2--0--0--0--0--|
|----3-------------------|------------------------|

Riff 1, Riff1, Riff1, Riff1, Riff2, Riff1, Riff1, Riff3, Riff1, Riff1.
Riff 4 is the bridge in the middle of the song.	
            
Hard to play? Try these video lessons and learn fast. | Correct




comments powered by Disqus
↑ Back to top | Tablatures and chords are parodies/interpretations of the original songs. You may use it for private study, scholarship, research or language learning purposes only