» » »

Ballrooms Of Mars Tabs (ver.1)

Artists:  A B C D E F G H I J K L M N O P Q R S T U V W X Y Z # 

Ballrooms Of Mars Tabs (ver.1)

T-Rex
Rating:
0/5 (0 votes)

Hard to play? Try these video lessons and learn fast.
                   I've noticed the two tabs you have on this wonderful song are close...but no cigar. 
off, it's gotta be played in open chords, definitely no barre chords. So here we go...

                         BALLROOMS OF MARS

  You gonna look fine    Be primed for dancing
E-------------------------------------------------------------|
B---------------------1-----1-----------2--2---1-1--1-1--1--2-|
G---------------------0-----0-----------2--2---1-1--1-1--1--2-|
D--------------------2---0--------------2--2---1-1--1-1--1--2-|
A----------------3------2---------------0--0---0-0--0-0--0--0-|
E-------------------------------------------------------------|

  You're gonna trip and glide all over the trembling plane
E----------------------------------------------------3--------|       Just
B-----------------------1------------------1---------0--------|    strum the open
G-----------------------0------------------0---------0--------|    G major chord
D-------------------2------------------0-------------0--------|    like Marc does
A--------------3------------------2------------------2--------|    on the song
E----------------------------------------------------3--------|

  You're diamond hands      will be stacked with roses
E--------------------------------------------------------2--2--2-2--2--2-|
B----------------------1------------1------------2----2--1--1--1-1--1--1-|
G----------------------0------------0------------2----2--2--2--2-2--2--2-|
D----------------=--2-------0--------------------2----2--0--0--0-0--0--0-|
A----------------3--------2----------------------0----0------------------|
E------------------------------------------------------------------------|

  And wind and cars and people of the past
E-----0--------0--------3------3------0-----------------|             Marc plays dualing
B-----1--------1--------0------0------1-----------------|             solos (two tracks on
G-----0--------0--------0------0------0-----------------|    ROCK!    top of each other).
D-----2--------2--------0------0------2-----------------|             My opinion is that you
A-----3--------3--------2------2------3-----------------|             improv them but that's
E-----------------------3------3------------------------|             just me.

   So now you know what that mysterious A? chord is (don't play a D chord
or that other chord A/A whatever). Rest of the song is just the same chords.
                 Enjoy - yours truly, the AXE MIESTER !
            
Hard to play? Try these video lessons and learn fast. | Correct




comments powered by Disqus
↑ Back to top | Tablatures and chords are parodies/interpretations of the original songs. You may use it for private study, scholarship, research or language learning purposes only