» » »

Sweetness Tabs (ver.2)

Artists:  A B C D E F G H I J K L M N O P Q R S T U V W X Y Z # 

Sweetness Tabs (ver.2)

The Trews
Rating:
0/5 (0 votes)

Tabs too difficult? Try these video lessons and learn fast.
                Tuning: Drop D (Dadgbe)

Intro
e|----------------------|
b|----------------------|
g|----------------------|   x2
d|---------------------0|
a|5-5-5-5--5-3-3-3-3---0|
D|-4-5-6-0----3-3-3-3--0|

Verse
e|--------x---------------------x----------|
b|--------x---------------------x----------|
g|7-7-7-7-x7--7-7-7-7---5-5-5-5-x5--5-5-5-5|
d|7-7-7-7-x7--7-7-7-7---5-5-5-5-x5--5-5-5-5|
a|5-5-5-5-x5--5-5-5-5---3-3-3-3-x3--3-3-3-3|
D|0-0-0-0-x0--0-0-0-0---0-0-0-0-x0--0-0-0-0|

Verse Last time
e|--------x---------------------x----------|
b|--------x---------------------x----------|
g|7-7-7-7-x7--7-7-7-7---5-5-5-5-x5--5-5-5-7|
d|7-7-7-7-x7--7-7-7-7---5-5-5-5-x5--5-5-5-7|
a|5-5-5-5-x5--5-5-5-5---3-3-3-3-x3--3-3-3-5|
D|0-0-0-0-x0--0-0-0-0---0-0-0-0-x0--0-0-0-0|

Pre- Chorus

e|--3---3---------------|
b|--3---3---------------|
g|5---5-----------------|
d|5---5-----------3-5-0-|
a|3---2---3h5p3p0-3-5-0-|
D|----------------3-5-0-|

Chorus
e|-----------------------------------------------------|
b|-----------------------------------------------------|
g|7-7---------5-5---------7-7---------5---5---5---5----|
d|7-7-5-6-7---5-5-3-4-5---7-7-5-6-7---5-3-5-3-5-3-5-3-0|
a|5-5-5-6-7---3-3-3-4-5---5-5-5-6-7---3-3-3-3-3-3-3-3-0|
D|0-0-5-6-7---0-0-3-4-5---0-0-5-6-7-----3---3---3---3-0|

Interlude - there is a quick doublestop at about 2:06 that
messes up the timing. It's impossible to hear exactly what
they're are doing as that is when the vocals come in.

e|-----|
b|-----|
g|-----| Repeated
d|-----|
a|3-5-5|
D|-----|

It's a really simple song but sounds good.
            
Tabs too difficult? Try these video lessons and learn fast.




comments powered by Disqus
↑ Back to top | Tablatures and chords are parodies/interpretations of the original songs. You may use it for private study, scholarship, research or language learning purposes only