» » »

So Shes Leaving Bass tabs (ver.1)

Artists:  A B C D E F G H I J K L M N O P Q R S T U V W X Y Z # 

So Shes Leaving Bass tabs (ver.1)

The Trews
Rating:
4/5 (3 votes)
Tabs too difficult? Try these video lessons and learn fast.
                Okay here is the bass to so she's leaving by The Trews

Intro X2
G----------------------------------------------------|
D----------------------------------------------------|
A---------4h5--5/12--------4h5--4h5p5----------------|
E-----3h5--------------3h5-------------5-5-----------|


Verse X4
G----------------------------------------------------|
D----------------------------------------------------|
A--0--0-0-0--0---0--0-0-0--0-------------------------|
E-3--3-3-3--3---3--3-3-3--3--------------------------|


chorus X4
G----------------------------------------------------|
D----------------------------------------------------|
A---------4h5--5/12--------4h5--4h5p5----------------|
E-----3h5--------------3h5-------------5-5-----------|


Verse X4
G----------------------------------------------------|
D----------------------------------------------------|
A--0--0-0-0--0---0--0-0-0--0-------------------------|
E-3--3-3-3--3---3--3-3-3--3--------------------------|


chorus X4
G----------------------------------------------------|
D----------------------------------------------------|
A---------4h5--5/12--------4h5--4h5p5----------------|
E-----3h5--------------3h5-------------5-5-----------|


Solo not sure how many times it does this but do it until the end
G----------------------------------------------------|
D----------------------------------------------------|
A---------4h5--5/12--------4h5--4h5p5----------------|
E-----3h5--------------3h5-------------5-5-----------|
            
Tabs too difficult? Try these video lessons and learn fast.


comments powered by Disqus
↑ Back to top | Tablatures and chords are parodies/interpretations of the original songs. You may use it for private study, scholarship, research or language learning purposes only