» » »

Poor Ol Broken Hearted Me Tabs (ver.1)

Artists:  A B C D E F G H I J K L M N O P Q R S T U V W X Y Z # 

Poor Ol Broken Hearted Me Tabs (ver.1)

The Trews
Rating:
5/5 (4 votes)

Tabs too difficult? Try these video lessons and learn fast.
                
This is my first attempt at tabbing. Any tips/suggestions are welcome.



Intro / Verse:
E||---------------------------------||
B||---------------------------------||
G||---------------------------------|| X 5
D||--------------------9-9-7--------||
A||--9-9-7-------------------9-5b---||
E||--------9-5b---------------------||


E||---------------------------------||
B||---------------------------------||
G||---------------------------------|| 
D||--------------------9-9-7--------||
A||--9-9-7-------------------9-5b-2-||
E||--------9-5b---------------------||




Chorus:
E||---------------------------------||
B||---------------------------------||
G||--4----2-------------------------||
D||--2----0--2----------------7-----||
A||----------0-----0h4-0--0h4-------||
E||---------------------------------||


E||---------------------------------||
B||---------------------------------||
G||---------------------------------||
D||---------------------------------||
A||--4----7--2----------------7-----||
E||--2----5--0-----0h4-0--0h4-------||



Verse:					_
E||---------------------------------||	 |
B||---------------------------------||	 |
G||--------------------4-4---4------||	 |
D||--------------------2-2---4------||	 |
A||--9-9-7--------------------------||	 |
E||--------9-5b---------------------||	 |
					 |
					 | X 3
E||---------------------------------||	 |
B||---------------------------------||	 |
G||--------------------4-4---3------|| 	 |
D||--9-9-7-------------4-4---4------||	 |
A||--------9-5b---------------------||	 |
E||---------------------------------||	_|


E||---------------------------------||	 
B||---------------------------------||	 
G||--------------------4-4---4------||	 
D||--------------------2-2---4------||	 
A||--9-9-7--------------------------||	 
E||--------9-5b---------------------||	 
					 
					 
E||---------------------------------||	 
B||---------------------------------||	 
G||---------------------------------|| 	 
D||--9-9-7-------------9-9-7--------||	 
A||--------9-5b--------------9-5b---||	 
E||---------------------------------||



Chorus:
E||---------------------------------||
B||---------------------------------||
G||--4----2-------------------------||
D||--2----0--2----------------7-----||
A||----------0-----0h4-0--0h4-------||
E||---------------------------------||


E||---------------------------------||
B||---------------------------------||
G||---------------------------------||
D||---------------------------------||
A||--4----7--2----------------7-----||
E||--2----5--0-----0h4-0--0h4-------||



*This is where the Interlude / Solo comes in...



Then go back to the Verse:					_
E||---------------------------------||	 |
B||---------------------------------||	 |
G||--------------------4-4---4------||	 |
D||--------------------2-2---4------||	 |
A||--9-9-7--------------------------||	 |
E||--------9-5b---------------------||	 |
					 |
					 | X 2
E||---------------------------------||	 |
B||---------------------------------||	 |
G||--------------------4-4---3------|| 	 |
D||--9-9-7-------------4-4---4------||	 |
A||--------9-5b---------------------||	 |
E||---------------------------------||	_|


*Vocals only with clapping


Then back to the chorus at higher octave:
E||---------------------------------||
B||--6----4-------------------------||
G||--4----2--4----------------4-----||
D||----------2-----0h1----0h2-------||
A||--------------------2------------||
E||---------------------------------||


E||---------------------------------||
B||---------------------------------||
G||---------------------------------||
D||-------4-------------------4-----||
A||--6----2--4-----0h1----0h1-------||
E||--4-------2---------2------------||


*Fades off playing this last verse and a solo in the background...
            
Tabs too difficult? Try these video lessons and learn fast.




comments powered by Disqus
↑ Back to top | Tablatures and chords are parodies/interpretations of the original songs. You may use it for private study, scholarship, research or language learning purposes only